ISO-10303-21;
HEADER;
/* Generated by software containing ST-Developer
 * from STEP Tools, Inc. (www.steptools.com) 
 */
/* OPTION: using custom schema-name function */

FILE_DESCRIPTION(
/* description */ (''),
/* implementation_level */ '2;1');

FILE_NAME(
/* name */ 'S4651-120E4R300.3Z5AC_Basic.stp',
/* time_stamp */ '2024-05-10T08:45:27+05:00',
/* author */ (''),
/* organization */ (''),
/* preprocessor_version */ 'ST-DEVELOPER v18.102',
/* originating_system */ 'SIEMENS PLM Software NX2206.8101',
/* authorisation */ '');

FILE_SCHEMA (('AUTOMOTIVE_DESIGN { 1 0 10303 214 3 1 1 1 }'));
ENDSEC;

DATA;
#10=CONSTRUCTIVE_GEOMETRY_REPRESENTATION_RELATIONSHIP(
'supplemental geometry','',#34,#11);
#11=CONSTRUCTIVE_GEOMETRY_REPRESENTATION('supplemental geometry',(#185,
#186,#187),#372);
#12=GEOMETRICALLY_BOUNDED_WIREFRAME_SHAPE_REPRESENTATION(
'inpu2ED4780794lb-None',(#35),#372);
#13=PROPERTY_DEFINITION_REPRESENTATION(#17,#15);
#14=PROPERTY_DEFINITION_REPRESENTATION(#18,#16);
#15=REPRESENTATION('',(#19),#372);
#16=REPRESENTATION('',(#20),#372);
#17=PROPERTY_DEFINITION('pmi validation property','',#25);
#18=PROPERTY_DEFINITION('pmi validation property','',#25);
#19=VALUE_REPRESENTATION_ITEM('number of annotations',COUNT_MEASURE(0.));
#20=VALUE_REPRESENTATION_ITEM('number of views',COUNT_MEASURE(0.));
#21=SHAPE_REPRESENTATION_RELATIONSHIP('None',
'relationship between inpu2ED4780794lb-None and inpu2ED4780794lb-None',
#34,#23);
#22=SHAPE_REPRESENTATION_RELATIONSHIP('None',
'relationship between inpu2ED4780794lb-None and inpu2ED4780794lb-None',
#34,#12);
#23=ADVANCED_BREP_SHAPE_REPRESENTATION('inpu2ED4780794lb-None',(#46,#47),
#372);
#24=SHAPE_DEFINITION_REPRESENTATION(#25,#34);
#25=PRODUCT_DEFINITION_SHAPE('','',#26);
#26=PRODUCT_DEFINITION(' ','',#28,#27);
#27=PRODUCT_DEFINITION_CONTEXT('part definition',#33,'design');
#28=PRODUCT_DEFINITION_FORMATION_WITH_SPECIFIED_SOURCE(' ',' ',#30,
 .NOT_KNOWN.);
#29=PRODUCT_RELATED_PRODUCT_CATEGORY('part','',(#30));
#30=PRODUCT('inpu2ED4780794lb','inpu2ED4780794lb',' ',(#31));
#31=PRODUCT_CONTEXT(' ',#33,'mechanical');
#32=APPLICATION_PROTOCOL_DEFINITION('international standard',
'automotive_design',2010,#33);
#33=APPLICATION_CONTEXT(
'core data for automotive mechanical design processes');
#34=SHAPE_REPRESENTATION('inpu2ED4780794lb-None',(#184),#372);
#35=GEOMETRIC_CURVE_SET('None',(#251,#162));
#36=SURFACE_STYLE_USAGE(.BOTH.,#38);
#37=SURFACE_STYLE_USAGE(.BOTH.,#39);
#38=SURFACE_SIDE_STYLE('',(#40));
#39=SURFACE_SIDE_STYLE('',(#41));
#40=SURFACE_STYLE_FILL_AREA(#42);
#41=SURFACE_STYLE_FILL_AREA(#43);
#42=FILL_AREA_STYLE('',(#44));
#43=FILL_AREA_STYLE('',(#45));
#44=FILL_AREA_STYLE_COLOUR('',#182);
#45=FILL_AREA_STYLE_COLOUR('',#183);
#46=MANIFOLD_SOLID_BREP('NOCUT',#48);
#47=MANIFOLD_SOLID_BREP('CUT',#49);
#48=CLOSED_SHELL('',(#63,#64,#65,#66,#67,#68,#69));
#49=CLOSED_SHELL('',(#70,#71,#72,#73));
#50=TOROIDAL_SURFACE('',#197,10.7,5.);
#51=CYLINDRICAL_SURFACE('',#195,5.7);
#52=CYLINDRICAL_SURFACE('',#198,6.);
#53=(
BOUNDED_SURFACE()
B_SPLINE_SURFACE(3,3,((#298,#299,#300,#301,#302,#303,#304),(#305,#306,#307,
#308,#309,#310,#311),(#312,#313,#314,#315,#316,#317,#318),(#319,#320,#321,
#322,#323,#324,#325)),.UNSPECIFIED.,.F.,.T.,.F.)
B_SPLINE_SURFACE_WITH_KNOTS((4,4),(1,3,3,3,1),(0.,1.),(-0.5,0.,0.5,1.,1.5),
 .UNSPECIFIED.)
GEOMETRIC_REPRESENTATION_ITEM()
RATIONAL_B_SPLINE_SURFACE(((1.,0.333333333333333,0.333333333333333,1.,0.333333333333333,
0.333333333333333,1.),(0.983364792112481,0.327788264037494,0.327788264037494,
0.983364792112481,0.327788264037494,0.327788264037494,0.983364792112481),
(0.983364792112481,0.327788264037494,0.327788264037494,0.983364792112481,
0.327788264037494,0.327788264037494,0.983364792112481),(1.,0.333333333333333,
0.333333333333333,1.,0.333333333333333,0.333333333333333,1.)))
REPRESENTATION_ITEM('')
SURFACE()
);
#54=(
BOUNDED_SURFACE()
B_SPLINE_SURFACE(3,3,((#339,#340,#341,#342,#343,#344,#345),(#346,#347,#348,
#349,#350,#351,#352),(#353,#354,#355,#356,#357,#358,#359),(#360,#361,#362,
#363,#364,#365,#366)),.UNSPECIFIED.,.F.,.T.,.F.)
B_SPLINE_SURFACE_WITH_KNOTS((4,4),(1,3,3,3,1),(0.,1.),(-0.5,0.,0.5,1.,1.5),
 .UNSPECIFIED.)
GEOMETRIC_REPRESENTATION_ITEM()
RATIONAL_B_SPLINE_SURFACE(((1.,0.333333333333333,0.333333333333333,1.,0.333333333333333,
0.333333333333333,1.),(0.804717284773137,0.268239094924379,0.268239094924379,
0.804717284773137,0.268239094924379,0.268239094924379,0.804717284773137),
(0.804717284773137,0.268239094924379,0.268239094924379,0.804717284773137,
0.268239094924379,0.268239094924379,0.804717284773137),(1.,0.333333333333333,
0.333333333333333,1.,0.333333333333333,0.333333333333333,1.)))
REPRESENTATION_ITEM('')
SURFACE()
);
#55=PLANE('',#191);
#56=PLANE('',#199);
#57=PLANE('',#201);
#58=PLANE('',#205);
#59=FACE_OUTER_BOUND('',#92,.T.);
#60=FACE_OUTER_BOUND('',#101,.T.);
#61=FACE_OUTER_BOUND('',#102,.T.);
#62=FACE_OUTER_BOUND('',#107,.T.);
#63=ADVANCED_FACE('',(#76,#77),#74,.T.);
#64=ADVANCED_FACE('',(#59),#55,.T.);
#65=ADVANCED_FACE('',(#78,#79),#53,.T.);
#66=ADVANCED_FACE('',(#80,#81),#51,.T.);
#67=ADVANCED_FACE('',(#82,#83),#50,.F.);
#68=ADVANCED_FACE('',(#84,#85),#52,.T.);
#69=ADVANCED_FACE('',(#60),#56,.T.);
#70=ADVANCED_FACE('',(#61),#57,.T.);
#71=ADVANCED_FACE('',(#86,#87),#54,.T.);
#72=ADVANCED_FACE('',(#88,#89),#75,.T.);
#73=ADVANCED_FACE('',(#62),#58,.F.);
#74=CONICAL_SURFACE('',#190,6.,45.);
#75=CONICAL_SURFACE('',#204,5.99999998857687,0.00500000000002085);
#76=FACE_BOUND('',#90,.T.);
#77=FACE_BOUND('',#91,.T.);
#78=FACE_BOUND('',#93,.T.);
#79=FACE_BOUND('',#94,.T.);
#80=FACE_BOUND('',#95,.T.);
#81=FACE_BOUND('',#96,.T.);
#82=FACE_BOUND('',#97,.T.);
#83=FACE_BOUND('',#98,.T.);
#84=FACE_BOUND('',#99,.T.);
#85=FACE_BOUND('',#100,.T.);
#86=FACE_BOUND('',#103,.T.);
#87=FACE_BOUND('',#104,.T.);
#88=FACE_BOUND('',#105,.T.);
#89=FACE_BOUND('',#106,.T.);
#90=EDGE_LOOP('',(#108));
#91=EDGE_LOOP('',(#109));
#92=EDGE_LOOP('',(#110));
#93=EDGE_LOOP('',(#111));
#94=EDGE_LOOP('',(#112));
#95=EDGE_LOOP('',(#113));
#96=EDGE_LOOP('',(#114));
#97=EDGE_LOOP('',(#115));
#98=EDGE_LOOP('',(#116));
#99=EDGE_LOOP('',(#117));
#100=EDGE_LOOP('',(#118));
#101=EDGE_LOOP('',(#119));
#102=EDGE_LOOP('',(#120));
#103=EDGE_LOOP('',(#121));
#104=EDGE_LOOP('',(#122));
#105=EDGE_LOOP('',(#123));
#106=EDGE_LOOP('',(#124));
#107=EDGE_LOOP('',(#125));
#108=ORIENTED_EDGE('',*,*,#135,.T.);
#109=ORIENTED_EDGE('',*,*,#136,.F.);
#110=ORIENTED_EDGE('',*,*,#135,.F.);
#111=ORIENTED_EDGE('',*,*,#137,.T.);
#112=ORIENTED_EDGE('',*,*,#138,.F.);
#113=ORIENTED_EDGE('',*,*,#139,.T.);
#114=ORIENTED_EDGE('',*,*,#137,.F.);
#115=ORIENTED_EDGE('',*,*,#140,.T.);
#116=ORIENTED_EDGE('',*,*,#139,.F.);
#117=ORIENTED_EDGE('',*,*,#136,.T.);
#118=ORIENTED_EDGE('',*,*,#140,.F.);
#119=ORIENTED_EDGE('',*,*,#138,.T.);
#120=ORIENTED_EDGE('',*,*,#141,.T.);
#121=ORIENTED_EDGE('',*,*,#142,.T.);
#122=ORIENTED_EDGE('',*,*,#141,.F.);
#123=ORIENTED_EDGE('',*,*,#143,.F.);
#124=ORIENTED_EDGE('',*,*,#142,.F.);
#125=ORIENTED_EDGE('',*,*,#143,.T.);
#126=VERTEX_POINT('',#289);
#127=VERTEX_POINT('',#291);
#128=VERTEX_POINT('',#295);
#129=VERTEX_POINT('',#297);
#130=VERTEX_POINT('',#327);
#131=VERTEX_POINT('',#330);
#132=VERTEX_POINT('',#335);
#133=VERTEX_POINT('',#338);
#134=VERTEX_POINT('',#368);
#135=EDGE_CURVE('',#126,#126,#144,.T.);
#136=EDGE_CURVE('',#127,#127,#145,.T.);
#137=EDGE_CURVE('',#128,#128,#146,.T.);
#138=EDGE_CURVE('',#129,#129,#147,.T.);
#139=EDGE_CURVE('',#130,#130,#148,.T.);
#140=EDGE_CURVE('',#131,#131,#149,.T.);
#141=EDGE_CURVE('',#132,#132,#150,.T.);
#142=EDGE_CURVE('',#133,#133,#151,.T.);
#143=EDGE_CURVE('',#134,#134,#152,.T.);
#144=CIRCLE('',#188,5.);
#145=CIRCLE('',#189,6.);
#146=CIRCLE('',#192,5.7);
#147=CIRCLE('',#193,5.99581122120773);
#148=CIRCLE('',#194,5.7);
#149=CIRCLE('',#196,6.);
#150=CIRCLE('',#200,3.);
#151=CIRCLE('',#202,5.99999998857687);
#152=CIRCLE('',#203,5.99581122120773);
#153=CURVE_STYLE('',#158,POSITIVE_LENGTH_MEASURE(0.18),#157);
#154=CURVE_STYLE('',#159,POSITIVE_LENGTH_MEASURE(0.18),#181);
#155=CURVE_STYLE('',#160,POSITIVE_LENGTH_MEASURE(0.18),#181);
#156=CURVE_STYLE('',#161,POSITIVE_LENGTH_MEASURE(0.18),#181);
#157=DRAUGHTING_PRE_DEFINED_COLOUR('blue');
#158=DRAUGHTING_PRE_DEFINED_CURVE_FONT('continuous');
#159=DRAUGHTING_PRE_DEFINED_CURVE_FONT('continuous');
#160=DRAUGHTING_PRE_DEFINED_CURVE_FONT('continuous');
#161=DRAUGHTING_PRE_DEFINED_CURVE_FONT('continuous');
#162=B_SPLINE_CURVE_WITH_KNOTS('CUTTING PART LINE',3,(#252,#253,#254,#255,
#256,#257,#258,#259,#260,#261,#262,#263,#264,#265,#266,#267,#268,#269,#270,
#271,#272,#273,#274,#275,#276,#277,#278,#279,#280,#281,#282,#283,#284),
 .UNSPECIFIED.,.T.,.F.,(4,3,1,1,1,1,1,1,1,1,1,1,1,1,1,1,1,1,1,1,1,1,1,1,
1,3,4),(0.,0.4524959126,0.46580461595,0.4784478841325,0.4791133193,0.480419970778125,
0.48172662225625,0.4843399252125,0.48695322816875,0.489566531125,0.49217983408125,
0.4947931370375,0.49740643999375,0.50001974295,0.50263304590625,0.5052463488625,
0.50785965181875,0.510472954775,0.51308625773125,0.5156995606875,0.51831286364375,
0.519619515121875,0.5209261666,0.521591598138906,0.73386425905,0.9468023515,
1.),.UNSPECIFIED.);
#163=PRESENTATION_LAYER_ASSIGNMENT('1','Layer 1',(#251,#162,#185,#186,#187,
#46,#47));
#164=STYLED_ITEM('',(#171),#251);
#165=STYLED_ITEM('',(#172),#162);
#166=STYLED_ITEM('',(#173),#185);
#167=STYLED_ITEM('',(#174),#186);
#168=STYLED_ITEM('',(#175),#187);
#169=STYLED_ITEM('',(#176),#46);
#170=STYLED_ITEM('',(#177),#47);
#171=PRESENTATION_STYLE_ASSIGNMENT((#178));
#172=PRESENTATION_STYLE_ASSIGNMENT((#153));
#173=PRESENTATION_STYLE_ASSIGNMENT((#154));
#174=PRESENTATION_STYLE_ASSIGNMENT((#155));
#175=PRESENTATION_STYLE_ASSIGNMENT((#156));
#176=PRESENTATION_STYLE_ASSIGNMENT((#36));
#177=PRESENTATION_STYLE_ASSIGNMENT((#37));
#178=POINT_STYLE('',#179,POSITIVE_LENGTH_MEASURE(3.),#180);
#179=PRE_DEFINED_POINT_MARKER_SYMBOL('plus');
#180=COLOUR_RGB('Medium Royal',0.301960784313725,0.427450980392157,0.701960784313725);
#181=COLOUR_RGB('Pale Maroon',0.811764705882353,0.603921568627451,0.611764705882353);
#182=COLOUR_RGB('medium gray',0.490196078431373,0.490196078431373,0.490196078431373);
#183=COLOUR_RGB('light gray',0.8,0.8,0.8);
#184=AXIS2_PLACEMENT_3D('',#250,#206,#207);
#185=AXIS2_PLACEMENT_3D('MCS',#285,#208,#209);
#186=AXIS2_PLACEMENT_3D('CIP',#286,#210,#211);
#187=AXIS2_PLACEMENT_3D('PCS',#287,#212,#213);
#188=AXIS2_PLACEMENT_3D('',#288,#214,#215);
#189=AXIS2_PLACEMENT_3D('',#290,#216,#217);
#190=AXIS2_PLACEMENT_3D('',#292,#218,#219);
#191=AXIS2_PLACEMENT_3D('',#293,#220,#221);
#192=AXIS2_PLACEMENT_3D('',#294,#222,#223);
#193=AXIS2_PLACEMENT_3D('',#296,#224,#225);
#194=AXIS2_PLACEMENT_3D('',#326,#226,#227);
#195=AXIS2_PLACEMENT_3D('',#328,#228,#229);
#196=AXIS2_PLACEMENT_3D('',#329,#230,#231);
#197=AXIS2_PLACEMENT_3D('',#331,#232,#233);
#198=AXIS2_PLACEMENT_3D('',#332,#234,#235);
#199=AXIS2_PLACEMENT_3D('',#333,#236,#237);
#200=AXIS2_PLACEMENT_3D('',#334,#238,#239);
#201=AXIS2_PLACEMENT_3D('',#336,#240,#241);
#202=AXIS2_PLACEMENT_3D('',#337,#242,#243);
#203=AXIS2_PLACEMENT_3D('',#367,#244,#245);
#204=AXIS2_PLACEMENT_3D('',#369,#246,#247);
#205=AXIS2_PLACEMENT_3D('',#370,#248,#249);
#206=DIRECTION('',(0.,0.,1.));
#207=DIRECTION('',(1.,0.,0.));
#208=DIRECTION('',(0.,0.,1.));
#209=DIRECTION('',(1.,0.,0.));
#210=DIRECTION('',(0.,0.,1.));
#211=DIRECTION('',(1.,0.,0.));
#212=DIRECTION('',(0.,0.,1.));
#213=DIRECTION('',(1.,0.,0.));
#214=DIRECTION('',(0.,0.,-1.));
#215=DIRECTION('',(-1.,0.,0.));
#216=DIRECTION('',(0.,0.,-1.));
#217=DIRECTION('',(-1.,0.,0.));
#218=DIRECTION('',(0.,0.,-1.));
#219=DIRECTION('',(-1.,0.,1.10360141612839E-16));
#220=DIRECTION('',(0.,0.,1.));
#221=DIRECTION('',(1.,0.,0.));
#222=DIRECTION('',(0.,0.,-1.));
#223=DIRECTION('',(-1.,0.,0.));
#224=DIRECTION('',(0.,0.,-1.));
#225=DIRECTION('',(-1.,0.,0.));
#226=DIRECTION('',(0.,0.,-1.));
#227=DIRECTION('',(-1.,0.,0.));
#228=DIRECTION('',(0.,0.,-1.));
#229=DIRECTION('',(-1.,0.,0.));
#230=DIRECTION('',(0.,0.,-1.));
#231=DIRECTION('',(-1.,0.,0.));
#232=DIRECTION('',(0.,0.,-1.));
#233=DIRECTION('',(-1.,0.,0.));
#234=DIRECTION('',(0.,0.,-1.));
#235=DIRECTION('',(-1.,0.,0.));
#236=DIRECTION('',(0.,0.,-1.));
#237=DIRECTION('',(-1.,0.,0.));
#238=DIRECTION('',(0.,0.,-1.));
#239=DIRECTION('',(-1.,0.,0.));
#240=DIRECTION('',(0.,0.,-1.));
#241=DIRECTION('',(-1.,0.,0.));
#242=DIRECTION('',(0.,0.,-1.));
#243=DIRECTION('',(-1.,0.,0.));
#244=DIRECTION('',(0.,0.,1.));
#245=DIRECTION('',(-1.,0.,0.));
#246=DIRECTION('',(0.,0.,-1.));
#247=DIRECTION('',(-1.,0.,6.83941860535424E-15));
#248=DIRECTION('',(0.,0.,-1.));
#249=DIRECTION('',(-1.,0.,0.));
#250=CARTESIAN_POINT('',(0.,0.,0.));
#251=CARTESIAN_POINT('CRP',(-6.,0.,-110.));
#252=CARTESIAN_POINT('',(0.,0.,-59.));
#253=CARTESIAN_POINT('',(0.,0.,-76.));
#254=CARTESIAN_POINT('',(0.,0.,-93.));
#255=CARTESIAN_POINT('',(0.,0.,-110.));
#256=CARTESIAN_POINT('',(-0.5,0.,-110.));
#257=CARTESIAN_POINT('',(-1.475,0.,-110.));
#258=CARTESIAN_POINT('',(-2.475,0.,-110.));
#259=CARTESIAN_POINT('',(-3.0240901169903,0.,-110.000307059897));
#260=CARTESIAN_POINT('',(-3.14727029869102,0.,-109.997588223242));
#261=CARTESIAN_POINT('',(-3.34315779124763,0.,-109.983140796929));
#262=CARTESIAN_POINT('',(-3.5862441423443,0.,-109.947080316743));
#263=CARTESIAN_POINT('',(-3.87230128234404,0.,-109.875422580388));
#264=CARTESIAN_POINT('',(-4.14995675573601,0.,-109.776069892437));
#265=CARTESIAN_POINT('',(-4.41653628171778,0.,-109.649979151912));
#266=CARTESIAN_POINT('',(-4.66947228139189,0.,-109.498364843131));
#267=CARTESIAN_POINT('',(-4.90632855688309,0.,-109.322687231689));
#268=CARTESIAN_POINT('',(-5.12482381789344,0.,-109.124638399993));
#269=CARTESIAN_POINT('',(-5.32285358115199,0.,-108.906125857213));
#270=CARTESIAN_POINT('',(-5.49851052249743,0.,-108.669254251675));
#271=CARTESIAN_POINT('',(-5.65010275786685,0.,-108.416305022146));
#272=CARTESIAN_POINT('',(-5.77617023450057,0.,-108.149714493619));
#273=CARTESIAN_POINT('',(-5.8754986920975,0.,-107.872050351059));
#274=CARTESIAN_POINT('',(-5.9471314650167,0.,-107.585986958665));
#275=CARTESIAN_POINT('',(-5.9831707317698,0.,-107.342897461457));
#276=CARTESIAN_POINT('',(-5.99760106359341,0.,-107.147008709117));
#277=CARTESIAN_POINT('',(-6.00030914906812,0.,-107.023828427083));
#278=CARTESIAN_POINT('',(-5.99929967903232,0.,-98.9747819701976));
#279=CARTESIAN_POINT('',(-5.99790342324262,0.,-82.9748692366601));
#280=CARTESIAN_POINT('',(-5.99650934910259,0.,-66.9999563667688));
#281=CARTESIAN_POINT('',(-5.99581122120774,0.,-59.));
#282=CARTESIAN_POINT('',(-3.99720748080516,0.,-59.));
#283=CARTESIAN_POINT('',(-1.99860374040258,0.,-59.));
#284=CARTESIAN_POINT('',(0.,0.,-59.));
#285=CARTESIAN_POINT('',(0.,0.,-45.));
#286=CARTESIAN_POINT('',(0.,0.,-110.));
#287=CARTESIAN_POINT('',(0.,0.,0.));
#288=CARTESIAN_POINT('',(0.,0.,0.));
#289=CARTESIAN_POINT('',(-5.,0.,0.));
#290=CARTESIAN_POINT('',(0.,0.,-1.));
#291=CARTESIAN_POINT('',(-6.,0.,-1.));
#292=CARTESIAN_POINT('',(0.,0.,-1.));
#293=CARTESIAN_POINT('',(5.,0.,6.56746651543947E-17));
#294=CARTESIAN_POINT('',(0.,0.,-57.7012763835976));
#295=CARTESIAN_POINT('',(-5.7,0.,-57.7012763835976));
#296=CARTESIAN_POINT('',(0.,0.,-59.));
#297=CARTESIAN_POINT('',(-5.99581122120773,0.,-59.));
#298=CARTESIAN_POINT('',(-5.99581122120773,0.,-59.));
#299=CARTESIAN_POINT('',(-5.99581122120773,11.9916224424155,-59.));
#300=CARTESIAN_POINT('',(5.99581122120773,11.9916224424155,-59.));
#301=CARTESIAN_POINT('',(5.99581122120773,0.,-59.));
#302=CARTESIAN_POINT('',(5.99581122120773,-11.9916224424155,-59.));
#303=CARTESIAN_POINT('',(-5.99581122120773,-11.9916224424155,-59.));
#304=CARTESIAN_POINT('',(-5.99581122120773,0.,-59.));
#305=CARTESIAN_POINT('',(-5.99577181984923,0.,-58.5484936911964));
#306=CARTESIAN_POINT('',(-5.99577181984923,11.9915436396985,-58.5484936911964));
#307=CARTESIAN_POINT('',(5.99577181984923,11.9915436396985,-58.5484936911964));
#308=CARTESIAN_POINT('',(5.99577181984923,0.,-58.5484936911964));
#309=CARTESIAN_POINT('',(5.99577181984923,-11.9915436396985,-58.5484936911964));
#310=CARTESIAN_POINT('',(-5.99577181984923,-11.9915436396985,-58.5484936911964));
#311=CARTESIAN_POINT('',(-5.99577181984923,0.,-58.5484936911964));
#312=CARTESIAN_POINT('',(-5.89550003750205,0.,-58.1082624813683));
#313=CARTESIAN_POINT('',(-5.89550003750205,11.7910000750041,-58.1082624813683));
#314=CARTESIAN_POINT('',(5.89550003750205,11.7910000750041,-58.1082624813683));
#315=CARTESIAN_POINT('',(5.89550003750205,0.,-58.1082624813683));
#316=CARTESIAN_POINT('',(5.89550003750205,-11.7910000750041,-58.1082624813683));
#317=CARTESIAN_POINT('',(-5.89550003750205,-11.7910000750041,-58.1082624813683));
#318=CARTESIAN_POINT('',(-5.89550003750205,0.,-58.1082624813683));
#319=CARTESIAN_POINT('',(-5.7,0.,-57.7012763835976));
#320=CARTESIAN_POINT('',(-5.7,11.4,-57.7012763835976));
#321=CARTESIAN_POINT('',(5.7,11.4,-57.7012763835976));
#322=CARTESIAN_POINT('',(5.7,0.,-57.7012763835976));
#323=CARTESIAN_POINT('',(5.7,-11.4,-57.7012763835976));
#324=CARTESIAN_POINT('',(-5.7,-11.4,-57.7012763835976));
#325=CARTESIAN_POINT('',(-5.7,0.,-57.7012763835976));
#326=CARTESIAN_POINT('',(0.,0.,-47.));
#327=CARTESIAN_POINT('',(-5.7,0.,-47.));
#328=CARTESIAN_POINT('',(0.,0.,-45.));
#329=CARTESIAN_POINT('',(0.,0.,-45.2941277890768));
#330=CARTESIAN_POINT('',(-6.,0.,-45.2941277890768));
#331=CARTESIAN_POINT('',(0.,0.,-47.));
#332=CARTESIAN_POINT('',(0.,0.,-45.));
#333=CARTESIAN_POINT('',(0.,0.,-59.));
#334=CARTESIAN_POINT('',(0.,0.,-110.));
#335=CARTESIAN_POINT('',(-3.,0.,-110.));
#336=CARTESIAN_POINT('',(1.33226762955019E-15,0.,-110.));
#337=CARTESIAN_POINT('',(0.,0.,-106.999738200613));
#338=CARTESIAN_POINT('',(-5.99999998857687,0.,-106.999738200613));
#339=CARTESIAN_POINT('',(-3.,0.,-110.));
#340=CARTESIAN_POINT('',(-3.,6.00000000000001,-110.));
#341=CARTESIAN_POINT('',(3.,6.00000000000001,-110.));
#342=CARTESIAN_POINT('',(3.,0.,-110.));
#343=CARTESIAN_POINT('',(3.,-6.00000000000001,-110.));
#344=CARTESIAN_POINT('',(-3.,-6.00000000000001,-110.));
#345=CARTESIAN_POINT('',(-3.,0.,-110.));
#346=CARTESIAN_POINT('',(-4.75748091223495,0.,-110.));
#347=CARTESIAN_POINT('',(-4.75748091223495,9.5149618244699,-110.));
#348=CARTESIAN_POINT('',(4.75748091223495,9.5149618244699,-110.));
#349=CARTESIAN_POINT('',(4.75748091223495,0.,-110.));
#350=CARTESIAN_POINT('',(4.75748091223495,-9.5149618244699,-110.));
#351=CARTESIAN_POINT('',(-4.75748091223495,-9.5149618244699,-110.));
#352=CARTESIAN_POINT('',(-4.75748091223495,0.,-110.));
#353=CARTESIAN_POINT('',(-6.00015335771896,0.,-108.757219106155));
#354=CARTESIAN_POINT('',(-6.00015335771896,12.0003067154379,-108.757219106155));
#355=CARTESIAN_POINT('',(6.00015335771896,12.0003067154379,-108.757219106155));
#356=CARTESIAN_POINT('',(6.00015335771896,0.,-108.757219106155));
#357=CARTESIAN_POINT('',(6.00015335771896,-12.0003067154379,-108.757219106155));
#358=CARTESIAN_POINT('',(-6.00015335771896,-12.0003067154379,-108.757219106155));
#359=CARTESIAN_POINT('',(-6.00015335771896,0.,-108.757219106155));
#360=CARTESIAN_POINT('',(-5.99999998857686,0.,-106.999738200613));
#361=CARTESIAN_POINT('',(-5.99999998857686,11.9999999771537,-106.999738200613));
#362=CARTESIAN_POINT('',(5.99999998857686,11.9999999771537,-106.999738200613));
#363=CARTESIAN_POINT('',(5.99999998857686,0.,-106.999738200613));
#364=CARTESIAN_POINT('',(5.99999998857686,-11.9999999771537,-106.999738200613));
#365=CARTESIAN_POINT('',(-5.99999998857686,-11.9999999771537,-106.999738200613));
#366=CARTESIAN_POINT('',(-5.99999998857686,0.,-106.999738200613));
#367=CARTESIAN_POINT('',(0.,0.,-59.));
#368=CARTESIAN_POINT('',(-5.99581122120773,0.,-59.));
#369=CARTESIAN_POINT('',(0.,0.,-106.999738200613));
#370=CARTESIAN_POINT('',(0.,0.,-59.));
#371=MECHANICAL_DESIGN_GEOMETRIC_PRESENTATION_REPRESENTATION('',(#164,#165,
#166,#167,#168,#169,#170),#372);
#372=(
GEOMETRIC_REPRESENTATION_CONTEXT(3)
GLOBAL_UNCERTAINTY_ASSIGNED_CONTEXT((#373))
GLOBAL_UNIT_ASSIGNED_CONTEXT((#379,#375,#374))
REPRESENTATION_CONTEXT('S4651-120E4R300','TOP_LEVEL_ASSEMBLY_PART')
);
#373=UNCERTAINTY_MEASURE_WITH_UNIT(LENGTH_MEASURE(0.0254),#379,
'DISTANCE_ACCURACY_VALUE','Maximum Tolerance applied to model');
#374=(
NAMED_UNIT(*)
SI_UNIT($,.STERADIAN.)
SOLID_ANGLE_UNIT()
);
#375=(
CONVERSION_BASED_UNIT('DEGREE',#377)
NAMED_UNIT(#376)
PLANE_ANGLE_UNIT()
);
#376=DIMENSIONAL_EXPONENTS(0.,0.,0.,0.,0.,0.,0.);
#377=PLANE_ANGLE_MEASURE_WITH_UNIT(PLANE_ANGLE_MEASURE(0.0174532925),#378);
#378=(
NAMED_UNIT(*)
PLANE_ANGLE_UNIT()
SI_UNIT($,.RADIAN.)
);
#379=(
LENGTH_UNIT()
NAMED_UNIT(*)
SI_UNIT(.MILLI.,.METRE.)
);
ENDSEC;
END-ISO-10303-21;
