ISO-10303-21;
HEADER;
/* Generated by software containing ST-Developer
 * from STEP Tools, Inc. (www.steptools.com) 
 */
/* OPTION: using custom schema-name function */

FILE_DESCRIPTION(
/* description */ (''),
/* implementation_level */ '2;1');

FILE_NAME(
/* name */ 'S4651-160E4R100.3Z5AC_Basic.stp',
/* time_stamp */ '2024-05-10T08:45:28+05:00',
/* author */ (''),
/* organization */ (''),
/* preprocessor_version */ 'ST-DEVELOPER v18.102',
/* originating_system */ 'SIEMENS PLM Software NX2206.8101',
/* authorisation */ '');

FILE_SCHEMA (('AUTOMOTIVE_DESIGN { 1 0 10303 214 3 1 1 1 }'));
ENDSEC;

DATA;
#10=CONSTRUCTIVE_GEOMETRY_REPRESENTATION_RELATIONSHIP(
'supplemental geometry','',#34,#11);
#11=CONSTRUCTIVE_GEOMETRY_REPRESENTATION('supplemental geometry',(#185,
#186,#187),#348);
#12=GEOMETRICALLY_BOUNDED_WIREFRAME_SHAPE_REPRESENTATION(
'inpu2ED4780794nh-None',(#35),#348);
#13=PROPERTY_DEFINITION_REPRESENTATION(#17,#15);
#14=PROPERTY_DEFINITION_REPRESENTATION(#18,#16);
#15=REPRESENTATION('',(#19),#348);
#16=REPRESENTATION('',(#20),#348);
#17=PROPERTY_DEFINITION('pmi validation property','',#25);
#18=PROPERTY_DEFINITION('pmi validation property','',#25);
#19=VALUE_REPRESENTATION_ITEM('number of annotations',COUNT_MEASURE(0.));
#20=VALUE_REPRESENTATION_ITEM('number of views',COUNT_MEASURE(0.));
#21=SHAPE_REPRESENTATION_RELATIONSHIP('None',
'relationship between inpu2ED4780794nh-None and inpu2ED4780794nh-None',
#34,#23);
#22=SHAPE_REPRESENTATION_RELATIONSHIP('None',
'relationship between inpu2ED4780794nh-None and inpu2ED4780794nh-None',
#34,#12);
#23=ADVANCED_BREP_SHAPE_REPRESENTATION('inpu2ED4780794nh-None',(#46,#47),
#348);
#24=SHAPE_DEFINITION_REPRESENTATION(#25,#34);
#25=PRODUCT_DEFINITION_SHAPE('','',#26);
#26=PRODUCT_DEFINITION(' ','',#28,#27);
#27=PRODUCT_DEFINITION_CONTEXT('part definition',#33,'design');
#28=PRODUCT_DEFINITION_FORMATION_WITH_SPECIFIED_SOURCE(' ',' ',#30,
 .NOT_KNOWN.);
#29=PRODUCT_RELATED_PRODUCT_CATEGORY('part','',(#30));
#30=PRODUCT('inpu2ED4780794nh','inpu2ED4780794nh',' ',(#31));
#31=PRODUCT_CONTEXT(' ',#33,'mechanical');
#32=APPLICATION_PROTOCOL_DEFINITION('international standard',
'automotive_design',2010,#33);
#33=APPLICATION_CONTEXT(
'core data for automotive mechanical design processes');
#34=SHAPE_REPRESENTATION('inpu2ED4780794nh-None',(#184),#348);
#35=GEOMETRIC_CURVE_SET('None',(#254,#162));
#36=SURFACE_STYLE_USAGE(.BOTH.,#38);
#37=SURFACE_STYLE_USAGE(.BOTH.,#39);
#38=SURFACE_SIDE_STYLE('',(#40));
#39=SURFACE_SIDE_STYLE('',(#41));
#40=SURFACE_STYLE_FILL_AREA(#42);
#41=SURFACE_STYLE_FILL_AREA(#43);
#42=FILL_AREA_STYLE('',(#44));
#43=FILL_AREA_STYLE('',(#45));
#44=FILL_AREA_STYLE_COLOUR('',#182);
#45=FILL_AREA_STYLE_COLOUR('',#183);
#46=MANIFOLD_SOLID_BREP('NOCUT',#48);
#47=MANIFOLD_SOLID_BREP('CUT',#49);
#48=CLOSED_SHELL('',(#63,#64,#65,#66,#67,#68,#69));
#49=CLOSED_SHELL('',(#70,#71,#72,#73));
#50=TOROIDAL_SURFACE('',#197,12.6,5.);
#51=TOROIDAL_SURFACE('',#203,7.00000000000001,1.);
#52=CYLINDRICAL_SURFACE('',#195,7.6);
#53=CYLINDRICAL_SURFACE('',#198,8.);
#54=(
BOUNDED_SURFACE()
B_SPLINE_SURFACE(3,3,((#301,#302,#303,#304,#305,#306,#307),(#308,#309,#310,
#311,#312,#313,#314),(#315,#316,#317,#318,#319,#320,#321),(#322,#323,#324,
#325,#326,#327,#328)),.UNSPECIFIED.,.F.,.T.,.F.)
B_SPLINE_SURFACE_WITH_KNOTS((4,4),(1,3,3,3,1),(0.,1.),(-0.5,0.,0.5,1.,1.5),
 .UNSPECIFIED.)
GEOMETRIC_REPRESENTATION_ITEM()
RATIONAL_B_SPLINE_SURFACE(((1.,0.333333333333333,0.333333333333333,1.,0.333333333333333,
0.333333333333333,1.),(0.983375977938047,0.327791992646016,0.327791992646016,
0.983375977938047,0.327791992646016,0.327791992646016,0.983375977938047),
(0.983375977938047,0.327791992646016,0.327791992646016,0.983375977938047,
0.327791992646016,0.327791992646016,0.983375977938047),(1.,0.333333333333333,
0.333333333333333,1.,0.333333333333333,0.333333333333333,1.)))
REPRESENTATION_ITEM('')
SURFACE()
);
#55=PLANE('',#191);
#56=PLANE('',#199);
#57=PLANE('',#201);
#58=PLANE('',#206);
#59=FACE_OUTER_BOUND('',#92,.T.);
#60=FACE_OUTER_BOUND('',#101,.T.);
#61=FACE_OUTER_BOUND('',#102,.T.);
#62=FACE_OUTER_BOUND('',#107,.T.);
#63=ADVANCED_FACE('',(#76,#77),#74,.T.);
#64=ADVANCED_FACE('',(#59),#55,.T.);
#65=ADVANCED_FACE('',(#78,#79),#54,.T.);
#66=ADVANCED_FACE('',(#80,#81),#52,.T.);
#67=ADVANCED_FACE('',(#82,#83),#50,.F.);
#68=ADVANCED_FACE('',(#84,#85),#53,.T.);
#69=ADVANCED_FACE('',(#60),#56,.T.);
#70=ADVANCED_FACE('',(#61),#57,.T.);
#71=ADVANCED_FACE('',(#86,#87),#51,.T.);
#72=ADVANCED_FACE('',(#88,#89),#75,.T.);
#73=ADVANCED_FACE('',(#62),#58,.F.);
#74=CONICAL_SURFACE('',#190,8.,45.);
#75=CONICAL_SURFACE('',#205,7.99999999619229,0.00500000000000249);
#76=FACE_BOUND('',#90,.T.);
#77=FACE_BOUND('',#91,.T.);
#78=FACE_BOUND('',#93,.T.);
#79=FACE_BOUND('',#94,.T.);
#80=FACE_BOUND('',#95,.T.);
#81=FACE_BOUND('',#96,.T.);
#82=FACE_BOUND('',#97,.T.);
#83=FACE_BOUND('',#98,.T.);
#84=FACE_BOUND('',#99,.T.);
#85=FACE_BOUND('',#100,.T.);
#86=FACE_BOUND('',#103,.T.);
#87=FACE_BOUND('',#104,.T.);
#88=FACE_BOUND('',#105,.T.);
#89=FACE_BOUND('',#106,.T.);
#90=EDGE_LOOP('',(#108));
#91=EDGE_LOOP('',(#109));
#92=EDGE_LOOP('',(#110));
#93=EDGE_LOOP('',(#111));
#94=EDGE_LOOP('',(#112));
#95=EDGE_LOOP('',(#113));
#96=EDGE_LOOP('',(#114));
#97=EDGE_LOOP('',(#115));
#98=EDGE_LOOP('',(#116));
#99=EDGE_LOOP('',(#117));
#100=EDGE_LOOP('',(#118));
#101=EDGE_LOOP('',(#119));
#102=EDGE_LOOP('',(#120));
#103=EDGE_LOOP('',(#121));
#104=EDGE_LOOP('',(#122));
#105=EDGE_LOOP('',(#123));
#106=EDGE_LOOP('',(#124));
#107=EDGE_LOOP('',(#125));
#108=ORIENTED_EDGE('',*,*,#135,.T.);
#109=ORIENTED_EDGE('',*,*,#136,.F.);
#110=ORIENTED_EDGE('',*,*,#135,.F.);
#111=ORIENTED_EDGE('',*,*,#137,.T.);
#112=ORIENTED_EDGE('',*,*,#138,.F.);
#113=ORIENTED_EDGE('',*,*,#139,.T.);
#114=ORIENTED_EDGE('',*,*,#137,.F.);
#115=ORIENTED_EDGE('',*,*,#140,.T.);
#116=ORIENTED_EDGE('',*,*,#139,.F.);
#117=ORIENTED_EDGE('',*,*,#136,.T.);
#118=ORIENTED_EDGE('',*,*,#140,.F.);
#119=ORIENTED_EDGE('',*,*,#138,.T.);
#120=ORIENTED_EDGE('',*,*,#141,.T.);
#121=ORIENTED_EDGE('',*,*,#142,.T.);
#122=ORIENTED_EDGE('',*,*,#141,.F.);
#123=ORIENTED_EDGE('',*,*,#143,.F.);
#124=ORIENTED_EDGE('',*,*,#142,.F.);
#125=ORIENTED_EDGE('',*,*,#143,.T.);
#126=VERTEX_POINT('',#292);
#127=VERTEX_POINT('',#294);
#128=VERTEX_POINT('',#298);
#129=VERTEX_POINT('',#300);
#130=VERTEX_POINT('',#330);
#131=VERTEX_POINT('',#333);
#132=VERTEX_POINT('',#338);
#133=VERTEX_POINT('',#341);
#134=VERTEX_POINT('',#344);
#135=EDGE_CURVE('',#126,#126,#144,.T.);
#136=EDGE_CURVE('',#127,#127,#145,.T.);
#137=EDGE_CURVE('',#128,#128,#146,.T.);
#138=EDGE_CURVE('',#129,#129,#147,.T.);
#139=EDGE_CURVE('',#130,#130,#148,.T.);
#140=EDGE_CURVE('',#131,#131,#149,.T.);
#141=EDGE_CURVE('',#132,#132,#150,.T.);
#142=EDGE_CURVE('',#133,#133,#151,.T.);
#143=EDGE_CURVE('',#134,#134,#152,.T.);
#144=CIRCLE('',#188,7.);
#145=CIRCLE('',#189,8.);
#146=CIRCLE('',#192,7.6);
#147=CIRCLE('',#193,7.9941531507987);
#148=CIRCLE('',#194,7.6);
#149=CIRCLE('',#196,8.00000000000001);
#150=CIRCLE('',#200,7.00000000000001);
#151=CIRCLE('',#202,7.99999999619229);
#152=CIRCLE('',#204,7.99415315079869);
#153=CURVE_STYLE('',#158,POSITIVE_LENGTH_MEASURE(0.18),#157);
#154=CURVE_STYLE('',#159,POSITIVE_LENGTH_MEASURE(0.18),#181);
#155=CURVE_STYLE('',#160,POSITIVE_LENGTH_MEASURE(0.18),#181);
#156=CURVE_STYLE('',#161,POSITIVE_LENGTH_MEASURE(0.18),#181);
#157=DRAUGHTING_PRE_DEFINED_COLOUR('blue');
#158=DRAUGHTING_PRE_DEFINED_CURVE_FONT('continuous');
#159=DRAUGHTING_PRE_DEFINED_CURVE_FONT('continuous');
#160=DRAUGHTING_PRE_DEFINED_CURVE_FONT('continuous');
#161=DRAUGHTING_PRE_DEFINED_CURVE_FONT('continuous');
#162=B_SPLINE_CURVE_WITH_KNOTS('CUTTING PART LINE',3,(#255,#256,#257,#258,
#259,#260,#261,#262,#263,#264,#265,#266,#267,#268,#269,#270,#271,#272,#273,
#274,#275,#276,#277,#278,#279,#280,#281,#282,#283,#284,#285,#286,#287),
 .UNSPECIFIED.,.T.,.F.,(4,3,1,1,1,1,1,1,1,1,1,1,1,1,1,1,1,1,1,1,1,1,1,1,
1,3,4),(0.,0.4486525421,0.47174495235,0.494693035035937,0.4948373626,0.495161250890625,
0.49548513918125,0.4961329157625,0.49678069234375,0.497428468925,0.49807624550625,
0.4987240220875,0.49937179866875,0.50001957525,0.50066735183125,0.5013151284125,
0.50196290499375,0.502610681575,0.50325845815625,0.5039062347375,0.50455401131875,
0.504877899609375,0.5052017879,0.505339929817687,0.7262288562,0.9472559245,
1.),.UNSPECIFIED.);
#163=PRESENTATION_LAYER_ASSIGNMENT('1','Layer 1',(#254,#162,#185,#186,#187,
#46,#47));
#164=STYLED_ITEM('',(#171),#254);
#165=STYLED_ITEM('',(#172),#162);
#166=STYLED_ITEM('',(#173),#185);
#167=STYLED_ITEM('',(#174),#186);
#168=STYLED_ITEM('',(#175),#187);
#169=STYLED_ITEM('',(#176),#46);
#170=STYLED_ITEM('',(#177),#47);
#171=PRESENTATION_STYLE_ASSIGNMENT((#178));
#172=PRESENTATION_STYLE_ASSIGNMENT((#153));
#173=PRESENTATION_STYLE_ASSIGNMENT((#154));
#174=PRESENTATION_STYLE_ASSIGNMENT((#155));
#175=PRESENTATION_STYLE_ASSIGNMENT((#156));
#176=PRESENTATION_STYLE_ASSIGNMENT((#36));
#177=PRESENTATION_STYLE_ASSIGNMENT((#37));
#178=POINT_STYLE('',#179,POSITIVE_LENGTH_MEASURE(3.),#180);
#179=PRE_DEFINED_POINT_MARKER_SYMBOL('plus');
#180=COLOUR_RGB('Medium Royal',0.301960784313725,0.427450980392157,0.701960784313725);
#181=COLOUR_RGB('Pale Maroon',0.811764705882353,0.603921568627451,0.611764705882353);
#182=COLOUR_RGB('medium gray',0.490196078431373,0.490196078431373,0.490196078431373);
#183=COLOUR_RGB('light gray',0.8,0.8,0.8);
#184=AXIS2_PLACEMENT_3D('',#253,#207,#208);
#185=AXIS2_PLACEMENT_3D('MCS',#288,#209,#210);
#186=AXIS2_PLACEMENT_3D('CIP',#289,#211,#212);
#187=AXIS2_PLACEMENT_3D('PCS',#290,#213,#214);
#188=AXIS2_PLACEMENT_3D('',#291,#215,#216);
#189=AXIS2_PLACEMENT_3D('',#293,#217,#218);
#190=AXIS2_PLACEMENT_3D('',#295,#219,#220);
#191=AXIS2_PLACEMENT_3D('',#296,#221,#222);
#192=AXIS2_PLACEMENT_3D('',#297,#223,#224);
#193=AXIS2_PLACEMENT_3D('',#299,#225,#226);
#194=AXIS2_PLACEMENT_3D('',#329,#227,#228);
#195=AXIS2_PLACEMENT_3D('',#331,#229,#230);
#196=AXIS2_PLACEMENT_3D('',#332,#231,#232);
#197=AXIS2_PLACEMENT_3D('',#334,#233,#234);
#198=AXIS2_PLACEMENT_3D('',#335,#235,#236);
#199=AXIS2_PLACEMENT_3D('',#336,#237,#238);
#200=AXIS2_PLACEMENT_3D('',#337,#239,#240);
#201=AXIS2_PLACEMENT_3D('',#339,#241,#242);
#202=AXIS2_PLACEMENT_3D('',#340,#243,#244);
#203=AXIS2_PLACEMENT_3D('',#342,#245,#246);
#204=AXIS2_PLACEMENT_3D('',#343,#247,#248);
#205=AXIS2_PLACEMENT_3D('',#345,#249,#250);
#206=AXIS2_PLACEMENT_3D('',#346,#251,#252);
#207=DIRECTION('',(0.,0.,1.));
#208=DIRECTION('',(1.,0.,0.));
#209=DIRECTION('',(0.,0.,1.));
#210=DIRECTION('',(1.,0.,0.));
#211=DIRECTION('',(0.,0.,1.));
#212=DIRECTION('',(1.,0.,0.));
#213=DIRECTION('',(0.,0.,1.));
#214=DIRECTION('',(1.,0.,0.));
#215=DIRECTION('',(0.,0.,-1.));
#216=DIRECTION('',(-1.,0.,0.));
#217=DIRECTION('',(0.,0.,-1.));
#218=DIRECTION('',(-1.,0.,0.));
#219=DIRECTION('',(0.,0.,-1.));
#220=DIRECTION('',(-1.,0.,1.10141173077893E-16));
#221=DIRECTION('',(0.,0.,1.));
#222=DIRECTION('',(1.,0.,0.));
#223=DIRECTION('',(0.,0.,-1.));
#224=DIRECTION('',(-1.,0.,0.));
#225=DIRECTION('',(0.,0.,-1.));
#226=DIRECTION('',(-1.,0.,0.));
#227=DIRECTION('',(0.,0.,-1.));
#228=DIRECTION('',(-1.,0.,0.));
#229=DIRECTION('',(0.,0.,-1.));
#230=DIRECTION('',(-1.,0.,0.));
#231=DIRECTION('',(0.,0.,-1.));
#232=DIRECTION('',(-1.,0.,0.));
#233=DIRECTION('',(0.,0.,-1.));
#234=DIRECTION('',(-1.,0.,0.));
#235=DIRECTION('',(0.,0.,-1.));
#236=DIRECTION('',(-1.,0.,0.));
#237=DIRECTION('',(0.,0.,-1.));
#238=DIRECTION('',(-1.,0.,0.));
#239=DIRECTION('',(0.,0.,-1.));
#240=DIRECTION('',(-1.,0.,0.));
#241=DIRECTION('',(0.,0.,-1.));
#242=DIRECTION('',(-1.,0.,0.));
#243=DIRECTION('',(0.,0.,-1.));
#244=DIRECTION('',(-1.,0.,0.));
#245=DIRECTION('',(0.,0.,-1.));
#246=DIRECTION('',(-1.,0.,0.));
#247=DIRECTION('',(0.,0.,1.));
#248=DIRECTION('',(-1.,0.,0.));
#249=DIRECTION('',(0.,0.,-1.));
#250=DIRECTION('',(-1.,0.,1.37280381480169E-14));
#251=DIRECTION('',(0.,0.,-1.));
#252=DIRECTION('',(-1.,0.,0.));
#253=CARTESIAN_POINT('',(0.,0.,0.));
#254=CARTESIAN_POINT('CRP',(-8.,0.,-135.));
#255=CARTESIAN_POINT('',(0.,0.,-67.));
#256=CARTESIAN_POINT('',(0.,0.,-89.6666666666667));
#257=CARTESIAN_POINT('',(0.,0.,-112.333333333333));
#258=CARTESIAN_POINT('',(0.,0.,-135.));
#259=CARTESIAN_POINT('',(-1.16666666666667,0.,-135.));
#260=CARTESIAN_POINT('',(-3.49270833333333,0.,-135.));
#261=CARTESIAN_POINT('',(-5.82604166666667,0.,-135.));
#262=CARTESIAN_POINT('',(-7.0090717055661,0.,-135.000089559136));
#263=CARTESIAN_POINT('',(-7.04909009956367,0.,-134.999196074414));
#264=CARTESIAN_POINT('',(-7.11438593041588,0.,-134.994380265643));
#265=CARTESIAN_POINT('',(-7.19541471411477,0.,-134.982360105581));
#266=CARTESIAN_POINT('',(-7.29076709411468,0.,-134.958474193463));
#267=CARTESIAN_POINT('',(-7.38331891857867,0.,-134.925356630812));
#268=CARTESIAN_POINT('',(-7.4721787605726,0.,-134.883326383971));
#269=CARTESIAN_POINT('',(-7.5564907604592,0.,-134.832788281048));
#270=CARTESIAN_POINT('',(-7.6354428523134,0.,-134.774229077212));
#271=CARTESIAN_POINT('',(-7.70827460589997,0.,-134.708212800062));
#272=CARTESIAN_POINT('',(-7.77428452706849,0.,-134.635375285719));
#273=CARTESIAN_POINT('',(-7.83283684082802,0.,-134.556418083897));
#274=CARTESIAN_POINT('',(-7.88336758595562,0.,-134.472101674049));
#275=CARTESIAN_POINT('',(-7.92539007816686,0.,-134.38323816454));
#276=CARTESIAN_POINT('',(-7.9584995640325,0.,-134.290683450353));
#277=CARTESIAN_POINT('',(-7.98237715500557,0.,-134.195328986222));
#278=CARTESIAN_POINT('',(-7.99439024392327,0.,-134.114299153819));
#279=CARTESIAN_POINT('',(-7.99920035453114,0.,-134.049002903039));
#280=CARTESIAN_POINT('',(-8.00008653589467,0.,-134.009296940588));
#281=CARTESIAN_POINT('',(-7.99902491291363,0.,-122.826281453705));
#282=CARTESIAN_POINT('',(-7.9970759644491,0.,-100.492977209192));
#283=CARTESIAN_POINT('',(-7.99512762503096,0.,-78.1666521222563));
#284=CARTESIAN_POINT('',(-7.9941531507987,0.,-67.));
#285=CARTESIAN_POINT('',(-5.3294354338658,0.,-67.));
#286=CARTESIAN_POINT('',(-2.6647177169329,0.,-67.));
#287=CARTESIAN_POINT('',(0.,0.,-67.));
#288=CARTESIAN_POINT('',(0.,0.,-48.));
#289=CARTESIAN_POINT('',(0.,0.,-135.));
#290=CARTESIAN_POINT('',(0.,0.,0.));
#291=CARTESIAN_POINT('',(0.,0.,0.));
#292=CARTESIAN_POINT('',(-7.,0.,0.));
#293=CARTESIAN_POINT('',(0.,0.,-1.));
#294=CARTESIAN_POINT('',(-8.,0.,-1.));
#295=CARTESIAN_POINT('',(0.,0.,-1.));
#296=CARTESIAN_POINT('',(7.,0.,1.11022302462516E-16));
#297=CARTESIAN_POINT('',(0.,0.,-65.2689136469141));
#298=CARTESIAN_POINT('',(-7.6,0.,-65.2689136469141));
#299=CARTESIAN_POINT('',(0.,0.,-67.));
#300=CARTESIAN_POINT('',(-7.9941531507987,0.,-67.));
#301=CARTESIAN_POINT('',(-7.9941531507987,0.,-67.));
#302=CARTESIAN_POINT('',(-7.99415315079869,15.9883063015974,-67.));
#303=CARTESIAN_POINT('',(7.99415315079869,15.9883063015974,-67.));
#304=CARTESIAN_POINT('',(7.9941531507987,0.,-67.));
#305=CARTESIAN_POINT('',(7.99415315079869,-15.9883063015974,-67.));
#306=CARTESIAN_POINT('',(-7.99415315079869,-15.9883063015974,-67.));
#307=CARTESIAN_POINT('',(-7.9941531507987,0.,-67.));
#308=CARTESIAN_POINT('',(-7.9941006336941,0.,-66.3981983124189));
#309=CARTESIAN_POINT('',(-7.9941006336941,15.9882012673882,-66.3981983124189));
#310=CARTESIAN_POINT('',(7.9941006336941,15.9882012673882,-66.3981983124189));
#311=CARTESIAN_POINT('',(7.9941006336941,0.,-66.3981983124189));
#312=CARTESIAN_POINT('',(7.9941006336941,-15.9882012673882,-66.3981983124189));
#313=CARTESIAN_POINT('',(-7.9941006336941,-15.9882012673882,-66.3981983124189));
#314=CARTESIAN_POINT('',(-7.9941006336941,0.,-66.3981983124189));
#315=CARTESIAN_POINT('',(-7.86049519025521,0.,-65.8114148264404));
#316=CARTESIAN_POINT('',(-7.86049519025521,15.7209903805104,-65.8114148264404));
#317=CARTESIAN_POINT('',(7.86049519025521,15.7209903805104,-65.8114148264404));
#318=CARTESIAN_POINT('',(7.86049519025521,0.,-65.8114148264404));
#319=CARTESIAN_POINT('',(7.86049519025521,-15.7209903805104,-65.8114148264404));
#320=CARTESIAN_POINT('',(-7.86049519025521,-15.7209903805104,-65.8114148264404));
#321=CARTESIAN_POINT('',(-7.86049519025521,0.,-65.8114148264404));
#322=CARTESIAN_POINT('',(-7.6,0.,-65.2689136469141));
#323=CARTESIAN_POINT('',(-7.6,15.2,-65.2689136469141));
#324=CARTESIAN_POINT('',(7.6,15.2,-65.2689136469141));
#325=CARTESIAN_POINT('',(7.6,0.,-65.2689136469141));
#326=CARTESIAN_POINT('',(7.6,-15.2,-65.2689136469141));
#327=CARTESIAN_POINT('',(-7.6,-15.2,-65.2689136469141));
#328=CARTESIAN_POINT('',(-7.6,0.,-65.2689136469141));
#329=CARTESIAN_POINT('',(0.,0.,-51.));
#330=CARTESIAN_POINT('',(-7.6,0.,-51.));
#331=CARTESIAN_POINT('',(0.,0.,-48.));
#332=CARTESIAN_POINT('',(0.,0.,-49.0404082057734));
#333=CARTESIAN_POINT('',(-8.00000000000001,0.,-49.0404082057734));
#334=CARTESIAN_POINT('',(0.,0.,-51.));
#335=CARTESIAN_POINT('',(0.,0.,-48.));
#336=CARTESIAN_POINT('',(0.,0.,-67.));
#337=CARTESIAN_POINT('',(0.,0.,-135.));
#338=CARTESIAN_POINT('',(-7.00000000000001,0.,-135.));
#339=CARTESIAN_POINT('',(4.44089209850063E-15,0.,-135.));
#340=CARTESIAN_POINT('',(0.,0.,-133.999912733538));
#341=CARTESIAN_POINT('',(-7.99999999619229,0.,-133.999912733538));
#342=CARTESIAN_POINT('',(0.,0.,-134.));
#343=CARTESIAN_POINT('',(0.,0.,-67.));
#344=CARTESIAN_POINT('',(-7.99415315079869,0.,-67.));
#345=CARTESIAN_POINT('',(0.,0.,-133.999912733538));
#346=CARTESIAN_POINT('',(0.,0.,-67.));
#347=MECHANICAL_DESIGN_GEOMETRIC_PRESENTATION_REPRESENTATION('',(#164,#165,
#166,#167,#168,#169,#170),#348);
#348=(
GEOMETRIC_REPRESENTATION_CONTEXT(3)
GLOBAL_UNCERTAINTY_ASSIGNED_CONTEXT((#349))
GLOBAL_UNIT_ASSIGNED_CONTEXT((#355,#351,#350))
REPRESENTATION_CONTEXT('S4651-160E4R100','TOP_LEVEL_ASSEMBLY_PART')
);
#349=UNCERTAINTY_MEASURE_WITH_UNIT(LENGTH_MEASURE(0.0254),#355,
'DISTANCE_ACCURACY_VALUE','Maximum Tolerance applied to model');
#350=(
NAMED_UNIT(*)
SI_UNIT($,.STERADIAN.)
SOLID_ANGLE_UNIT()
);
#351=(
CONVERSION_BASED_UNIT('DEGREE',#353)
NAMED_UNIT(#352)
PLANE_ANGLE_UNIT()
);
#352=DIMENSIONAL_EXPONENTS(0.,0.,0.,0.,0.,0.,0.);
#353=PLANE_ANGLE_MEASURE_WITH_UNIT(PLANE_ANGLE_MEASURE(0.0174532925),#354);
#354=(
NAMED_UNIT(*)
PLANE_ANGLE_UNIT()
SI_UNIT($,.RADIAN.)
);
#355=(
LENGTH_UNIT()
NAMED_UNIT(*)
SI_UNIT(.MILLI.,.METRE.)
);
ENDSEC;
END-ISO-10303-21;
