ISO-10303-21;
HEADER;
/* Generated by software containing ST-Developer
 * from STEP Tools, Inc. (www.steptools.com) 
 */
/* OPTION: using custom schema-name function */

FILE_DESCRIPTION(
/* description */ (''),
/* implementation_level */ '2;1');

FILE_NAME(
/* name */ 'S4651-200E2R100.0Z5AC_Basic.stp',
/* time_stamp */ '2024-05-10T08:44:01+05:00',
/* author */ (''),
/* organization */ (''),
/* preprocessor_version */ 'ST-DEVELOPER v18.102',
/* originating_system */ 'SIEMENS PLM Software NX2206.8101',
/* authorisation */ '');

FILE_SCHEMA (('AUTOMOTIVE_DESIGN { 1 0 10303 214 3 1 1 1 }'));
ENDSEC;

DATA;
#10=CONSTRUCTIVE_GEOMETRY_REPRESENTATION_RELATIONSHIP(
'supplemental geometry','',#34,#11);
#11=CONSTRUCTIVE_GEOMETRY_REPRESENTATION('supplemental geometry',(#207,
#208,#209),#364);
#12=GEOMETRICALLY_BOUNDED_WIREFRAME_SHAPE_REPRESENTATION(
'inpu2ED4780794bv-None',(#35),#364);
#13=PROPERTY_DEFINITION_REPRESENTATION(#17,#15);
#14=PROPERTY_DEFINITION_REPRESENTATION(#18,#16);
#15=REPRESENTATION('',(#19),#364);
#16=REPRESENTATION('',(#20),#364);
#17=PROPERTY_DEFINITION('pmi validation property','',#25);
#18=PROPERTY_DEFINITION('pmi validation property','',#25);
#19=VALUE_REPRESENTATION_ITEM('number of annotations',COUNT_MEASURE(0.));
#20=VALUE_REPRESENTATION_ITEM('number of views',COUNT_MEASURE(0.));
#21=SHAPE_REPRESENTATION_RELATIONSHIP('None',
'relationship between inpu2ED4780794bv-None and inpu2ED4780794bv-None',
#34,#23);
#22=SHAPE_REPRESENTATION_RELATIONSHIP('None',
'relationship between inpu2ED4780794bv-None and inpu2ED4780794bv-None',
#34,#12);
#23=ADVANCED_BREP_SHAPE_REPRESENTATION('inpu2ED4780794bv-None',(#46,#47),
#364);
#24=SHAPE_DEFINITION_REPRESENTATION(#25,#34);
#25=PRODUCT_DEFINITION_SHAPE('','',#26);
#26=PRODUCT_DEFINITION(' ','',#28,#27);
#27=PRODUCT_DEFINITION_CONTEXT('part definition',#33,'design');
#28=PRODUCT_DEFINITION_FORMATION_WITH_SPECIFIED_SOURCE(' ',' ',#30,
 .NOT_KNOWN.);
#29=PRODUCT_RELATED_PRODUCT_CATEGORY('part','',(#30));
#30=PRODUCT('inpu2ED4780794bv','inpu2ED4780794bv',' ',(#31));
#31=PRODUCT_CONTEXT(' ',#33,'mechanical');
#32=APPLICATION_PROTOCOL_DEFINITION('international standard',
'automotive_design',2010,#33);
#33=APPLICATION_CONTEXT(
'core data for automotive mechanical design processes');
#34=SHAPE_REPRESENTATION('inpu2ED4780794bv-None',(#206),#364);
#35=GEOMETRIC_CURVE_SET('None',(#291,#184));
#36=SURFACE_STYLE_USAGE(.BOTH.,#38);
#37=SURFACE_STYLE_USAGE(.BOTH.,#39);
#38=SURFACE_SIDE_STYLE('',(#40));
#39=SURFACE_SIDE_STYLE('',(#41));
#40=SURFACE_STYLE_FILL_AREA(#42);
#41=SURFACE_STYLE_FILL_AREA(#43);
#42=FILL_AREA_STYLE('',(#44));
#43=FILL_AREA_STYLE('',(#45));
#44=FILL_AREA_STYLE_COLOUR('',#204);
#45=FILL_AREA_STYLE_COLOUR('',#205);
#46=MANIFOLD_SOLID_BREP('NOCUT',#48);
#47=MANIFOLD_SOLID_BREP('CUT',#49);
#48=CLOSED_SHELL('',(#65,#66,#67,#68,#69,#70,#71));
#49=CLOSED_SHELL('',(#72,#73,#74,#75,#76,#77));
#50=CYLINDRICAL_SURFACE('',#218,9.5);
#51=CYLINDRICAL_SURFACE('',#221,10.);
#52=CYLINDRICAL_SURFACE('',#232,1.);
#53=TOROIDAL_SURFACE('',#216,5.99616029467445,4.);
#54=TOROIDAL_SURFACE('',#220,14.5,5.);
#55=TOROIDAL_SURFACE('',#227,9.00000000000001,1.00000000000001);
#56=PLANE('',#213);
#57=PLANE('',#222);
#58=PLANE('',#225);
#59=PLANE('',#230);
#60=PLANE('',#233);
#61=FACE_OUTER_BOUND('',#100,.T.);
#62=FACE_OUTER_BOUND('',#109,.T.);
#63=FACE_OUTER_BOUND('',#116,.T.);
#64=FACE_OUTER_BOUND('',#119,.T.);
#65=ADVANCED_FACE('',(#80,#81),#78,.T.);
#66=ADVANCED_FACE('',(#61),#56,.T.);
#67=ADVANCED_FACE('',(#82,#83),#53,.T.);
#68=ADVANCED_FACE('',(#84,#85),#50,.T.);
#69=ADVANCED_FACE('',(#86,#87),#54,.F.);
#70=ADVANCED_FACE('',(#88,#89),#51,.T.);
#71=ADVANCED_FACE('',(#62),#57,.T.);
#72=ADVANCED_FACE('',(#90,#91),#58,.T.);
#73=ADVANCED_FACE('',(#92,#93),#55,.T.);
#74=ADVANCED_FACE('',(#94,#95),#79,.T.);
#75=ADVANCED_FACE('',(#63),#59,.F.);
#76=ADVANCED_FACE('',(#96,#97),#52,.F.);
#77=ADVANCED_FACE('',(#64),#60,.T.);
#78=CONICAL_SURFACE('',#212,10.,45.);
#79=CONICAL_SURFACE('',#229,9.9999999961923,0.0050000000000223);
#80=FACE_BOUND('',#98,.T.);
#81=FACE_BOUND('',#99,.T.);
#82=FACE_BOUND('',#101,.T.);
#83=FACE_BOUND('',#102,.T.);
#84=FACE_BOUND('',#103,.T.);
#85=FACE_BOUND('',#104,.T.);
#86=FACE_BOUND('',#105,.T.);
#87=FACE_BOUND('',#106,.T.);
#88=FACE_BOUND('',#107,.T.);
#89=FACE_BOUND('',#108,.T.);
#90=FACE_BOUND('',#110,.T.);
#91=FACE_BOUND('',#111,.T.);
#92=FACE_BOUND('',#112,.T.);
#93=FACE_BOUND('',#113,.T.);
#94=FACE_BOUND('',#114,.T.);
#95=FACE_BOUND('',#115,.T.);
#96=FACE_BOUND('',#117,.T.);
#97=FACE_BOUND('',#118,.T.);
#98=EDGE_LOOP('',(#120));
#99=EDGE_LOOP('',(#121));
#100=EDGE_LOOP('',(#122));
#101=EDGE_LOOP('',(#123));
#102=EDGE_LOOP('',(#124));
#103=EDGE_LOOP('',(#125));
#104=EDGE_LOOP('',(#126));
#105=EDGE_LOOP('',(#127));
#106=EDGE_LOOP('',(#128));
#107=EDGE_LOOP('',(#129));
#108=EDGE_LOOP('',(#130));
#109=EDGE_LOOP('',(#131));
#110=EDGE_LOOP('',(#132));
#111=EDGE_LOOP('',(#133));
#112=EDGE_LOOP('',(#134));
#113=EDGE_LOOP('',(#135));
#114=EDGE_LOOP('',(#136));
#115=EDGE_LOOP('',(#137));
#116=EDGE_LOOP('',(#138));
#117=EDGE_LOOP('',(#139));
#118=EDGE_LOOP('',(#140));
#119=EDGE_LOOP('',(#141));
#120=ORIENTED_EDGE('',*,*,#153,.T.);
#121=ORIENTED_EDGE('',*,*,#154,.F.);
#122=ORIENTED_EDGE('',*,*,#153,.F.);
#123=ORIENTED_EDGE('',*,*,#155,.T.);
#124=ORIENTED_EDGE('',*,*,#156,.F.);
#125=ORIENTED_EDGE('',*,*,#157,.T.);
#126=ORIENTED_EDGE('',*,*,#155,.F.);
#127=ORIENTED_EDGE('',*,*,#158,.T.);
#128=ORIENTED_EDGE('',*,*,#157,.F.);
#129=ORIENTED_EDGE('',*,*,#154,.T.);
#130=ORIENTED_EDGE('',*,*,#158,.F.);
#131=ORIENTED_EDGE('',*,*,#156,.T.);
#132=ORIENTED_EDGE('',*,*,#159,.F.);
#133=ORIENTED_EDGE('',*,*,#160,.T.);
#134=ORIENTED_EDGE('',*,*,#161,.T.);
#135=ORIENTED_EDGE('',*,*,#160,.F.);
#136=ORIENTED_EDGE('',*,*,#162,.F.);
#137=ORIENTED_EDGE('',*,*,#161,.F.);
#138=ORIENTED_EDGE('',*,*,#162,.T.);
#139=ORIENTED_EDGE('',*,*,#163,.T.);
#140=ORIENTED_EDGE('',*,*,#159,.T.);
#141=ORIENTED_EDGE('',*,*,#163,.F.);
#142=VERTEX_POINT('',#329);
#143=VERTEX_POINT('',#331);
#144=VERTEX_POINT('',#335);
#145=VERTEX_POINT('',#337);
#146=VERTEX_POINT('',#340);
#147=VERTEX_POINT('',#343);
#148=VERTEX_POINT('',#348);
#149=VERTEX_POINT('',#350);
#150=VERTEX_POINT('',#353);
#151=VERTEX_POINT('',#356);
#152=VERTEX_POINT('',#360);
#153=EDGE_CURVE('',#142,#142,#164,.T.);
#154=EDGE_CURVE('',#143,#143,#165,.T.);
#155=EDGE_CURVE('',#144,#144,#166,.T.);
#156=EDGE_CURVE('',#145,#145,#167,.T.);
#157=EDGE_CURVE('',#146,#146,#168,.T.);
#158=EDGE_CURVE('',#147,#147,#169,.T.);
#159=EDGE_CURVE('',#148,#148,#170,.T.);
#160=EDGE_CURVE('',#149,#149,#171,.T.);
#161=EDGE_CURVE('',#150,#150,#172,.T.);
#162=EDGE_CURVE('',#151,#151,#173,.T.);
#163=EDGE_CURVE('',#152,#152,#174,.T.);
#164=CIRCLE('',#210,8.5);
#165=CIRCLE('',#211,10.);
#166=CIRCLE('',#214,9.5);
#167=CIRCLE('',#215,9.99616027944358);
#168=CIRCLE('',#217,9.5);
#169=CIRCLE('',#219,10.);
#170=CIRCLE('',#223,1.);
#171=CIRCLE('',#224,9.00000000000001);
#172=CIRCLE('',#226,9.9999999961923);
#173=CIRCLE('',#228,9.99616027944358);
#174=CIRCLE('',#231,1.);
#175=CURVE_STYLE('',#180,POSITIVE_LENGTH_MEASURE(0.18),#179);
#176=CURVE_STYLE('',#181,POSITIVE_LENGTH_MEASURE(0.18),#203);
#177=CURVE_STYLE('',#182,POSITIVE_LENGTH_MEASURE(0.18),#203);
#178=CURVE_STYLE('',#183,POSITIVE_LENGTH_MEASURE(0.18),#203);
#179=DRAUGHTING_PRE_DEFINED_COLOUR('blue');
#180=DRAUGHTING_PRE_DEFINED_CURVE_FONT('continuous');
#181=DRAUGHTING_PRE_DEFINED_CURVE_FONT('continuous');
#182=DRAUGHTING_PRE_DEFINED_CURVE_FONT('continuous');
#183=DRAUGHTING_PRE_DEFINED_CURVE_FONT('continuous');
#184=B_SPLINE_CURVE_WITH_KNOTS('CUTTING PART LINE',3,(#292,#293,#294,#295,
#296,#297,#298,#299,#300,#301,#302,#303,#304,#305,#306,#307,#308,#309,#310,
#311,#312,#313,#314,#315,#316,#317,#318,#319,#320,#321,#322,#323,#324),
 .UNSPECIFIED.,.T.,.F.,(4,3,1,1,1,1,1,1,1,1,1,1,1,1,1,1,1,1,1,1,1,1,1,1,
1,3,4),(0.,0.4107077655,0.4517785421,0.49259262634625,0.4928493187,0.4932973562625,
0.493745393825,0.49464146895,0.495537544075,0.4964336192,0.497329694325,
0.49822576945,0.499121844575,0.5000179197,0.500913994825,0.50181006995,
0.502706145075,0.5036022202,0.504498295325,0.50539437045,0.506290445575,
0.5067384831375,0.5071865207,0.507437508282125,0.7079765864,0.9087666521,
1.),.UNSPECIFIED.);
#185=PRESENTATION_LAYER_ASSIGNMENT('1','Layer 1',(#291,#184,#207,#208,#209,
#46,#47));
#186=STYLED_ITEM('',(#193),#291);
#187=STYLED_ITEM('',(#194),#184);
#188=STYLED_ITEM('',(#195),#207);
#189=STYLED_ITEM('',(#196),#208);
#190=STYLED_ITEM('',(#197),#209);
#191=STYLED_ITEM('',(#198),#46);
#192=STYLED_ITEM('',(#199),#47);
#193=PRESENTATION_STYLE_ASSIGNMENT((#200));
#194=PRESENTATION_STYLE_ASSIGNMENT((#175));
#195=PRESENTATION_STYLE_ASSIGNMENT((#176));
#196=PRESENTATION_STYLE_ASSIGNMENT((#177));
#197=PRESENTATION_STYLE_ASSIGNMENT((#178));
#198=PRESENTATION_STYLE_ASSIGNMENT((#36));
#199=PRESENTATION_STYLE_ASSIGNMENT((#37));
#200=POINT_STYLE('',#201,POSITIVE_LENGTH_MEASURE(3.),#202);
#201=PRE_DEFINED_POINT_MARKER_SYMBOL('plus');
#202=COLOUR_RGB('Medium Royal',0.301960784313725,0.427450980392157,0.701960784313725);
#203=COLOUR_RGB('Pale Maroon',0.811764705882353,0.603921568627451,0.611764705882353);
#204=COLOUR_RGB('medium gray',0.490196078431373,0.490196078431373,0.490196078431373);
#205=COLOUR_RGB('light gray',0.8,0.8,0.8);
#206=AXIS2_PLACEMENT_3D('',#290,#234,#235);
#207=AXIS2_PLACEMENT_3D('MCS',#325,#236,#237);
#208=AXIS2_PLACEMENT_3D('CIP',#326,#238,#239);
#209=AXIS2_PLACEMENT_3D('PCS',#327,#240,#241);
#210=AXIS2_PLACEMENT_3D('',#328,#242,#243);
#211=AXIS2_PLACEMENT_3D('',#330,#244,#245);
#212=AXIS2_PLACEMENT_3D('',#332,#246,#247);
#213=AXIS2_PLACEMENT_3D('',#333,#248,#249);
#214=AXIS2_PLACEMENT_3D('',#334,#250,#251);
#215=AXIS2_PLACEMENT_3D('',#336,#252,#253);
#216=AXIS2_PLACEMENT_3D('',#338,#254,#255);
#217=AXIS2_PLACEMENT_3D('',#339,#256,#257);
#218=AXIS2_PLACEMENT_3D('',#341,#258,#259);
#219=AXIS2_PLACEMENT_3D('',#342,#260,#261);
#220=AXIS2_PLACEMENT_3D('',#344,#262,#263);
#221=AXIS2_PLACEMENT_3D('',#345,#264,#265);
#222=AXIS2_PLACEMENT_3D('',#346,#266,#267);
#223=AXIS2_PLACEMENT_3D('',#347,#268,#269);
#224=AXIS2_PLACEMENT_3D('',#349,#270,#271);
#225=AXIS2_PLACEMENT_3D('',#351,#272,#273);
#226=AXIS2_PLACEMENT_3D('',#352,#274,#275);
#227=AXIS2_PLACEMENT_3D('',#354,#276,#277);
#228=AXIS2_PLACEMENT_3D('',#355,#278,#279);
#229=AXIS2_PLACEMENT_3D('',#357,#280,#281);
#230=AXIS2_PLACEMENT_3D('',#358,#282,#283);
#231=AXIS2_PLACEMENT_3D('',#359,#284,#285);
#232=AXIS2_PLACEMENT_3D('',#361,#286,#287);
#233=AXIS2_PLACEMENT_3D('',#362,#288,#289);
#234=DIRECTION('',(0.,0.,1.));
#235=DIRECTION('',(1.,0.,0.));
#236=DIRECTION('',(0.,0.,1.));
#237=DIRECTION('',(1.,0.,0.));
#238=DIRECTION('',(0.,0.,1.));
#239=DIRECTION('',(1.,0.,0.));
#240=DIRECTION('',(0.,0.,1.));
#241=DIRECTION('',(1.,0.,0.));
#242=DIRECTION('',(0.,0.,-1.));
#243=DIRECTION('',(-1.,0.,0.));
#244=DIRECTION('',(0.,0.,-1.));
#245=DIRECTION('',(-1.,0.,0.));
#246=DIRECTION('',(0.,0.,-1.));
#247=DIRECTION('',(-1.,0.,-5.49615358725326E-17));
#248=DIRECTION('',(0.,0.,1.));
#249=DIRECTION('',(1.,0.,0.));
#250=DIRECTION('',(0.,0.,-1.));
#251=DIRECTION('',(-1.,0.,0.));
#252=DIRECTION('',(0.,0.,-1.));
#253=DIRECTION('',(-1.,0.,0.));
#254=DIRECTION('',(0.,0.,-1.));
#255=DIRECTION('',(-1.,0.,0.));
#256=DIRECTION('',(0.,0.,-1.));
#257=DIRECTION('',(-1.,0.,0.));
#258=DIRECTION('',(0.,0.,-1.));
#259=DIRECTION('',(-1.,0.,0.));
#260=DIRECTION('',(0.,0.,-1.));
#261=DIRECTION('',(-1.,0.,0.));
#262=DIRECTION('',(0.,0.,-1.));
#263=DIRECTION('',(-1.,0.,0.));
#264=DIRECTION('',(0.,0.,-1.));
#265=DIRECTION('',(-1.,0.,0.));
#266=DIRECTION('',(0.,0.,-1.));
#267=DIRECTION('',(-1.,0.,0.));
#268=DIRECTION('',(0.,0.,-1.));
#269=DIRECTION('',(1.,1.22464679914735E-16,0.));
#270=DIRECTION('',(0.,0.,-1.));
#271=DIRECTION('',(-1.,0.,0.));
#272=DIRECTION('',(0.,0.,-1.));
#273=DIRECTION('',(-1.,0.,0.));
#274=DIRECTION('',(0.,0.,-1.));
#275=DIRECTION('',(-1.,0.,0.));
#276=DIRECTION('',(0.,0.,-1.));
#277=DIRECTION('',(-1.,0.,0.));
#278=DIRECTION('',(0.,0.,1.));
#279=DIRECTION('',(-1.,0.,0.));
#280=DIRECTION('',(0.,0.,-1.));
#281=DIRECTION('',(-1.,0.,2.75154579572216E-15));
#282=DIRECTION('',(0.,0.,-1.));
#283=DIRECTION('',(-1.,0.,0.));
#284=DIRECTION('',(0.,0.,1.));
#285=DIRECTION('',(1.,1.22464679914735E-16,0.));
#286=DIRECTION('',(0.,0.,-1.));
#287=DIRECTION('',(-1.,0.,0.));
#288=DIRECTION('',(0.,0.,-1.));
#289=DIRECTION('',(-1.,0.,0.));
#290=CARTESIAN_POINT('',(0.,0.,0.));
#291=CARTESIAN_POINT('CRP',(-10.,0.,-120.));
#292=CARTESIAN_POINT('',(0.,0.,-75.));
#293=CARTESIAN_POINT('',(0.,0.,-90.));
#294=CARTESIAN_POINT('',(0.,0.,-105.));
#295=CARTESIAN_POINT('',(0.,0.,-120.));
#296=CARTESIAN_POINT('',(-1.5,0.,-120.));
#297=CARTESIAN_POINT('',(-4.490625,0.,-120.));
#298=CARTESIAN_POINT('',(-7.490625,0.,-120.));
#299=CARTESIAN_POINT('',(-9.00698837256122,0.,-120.000115147461));
#300=CARTESIAN_POINT('',(-9.04909009956367,0.,-119.999196074414));
#301=CARTESIAN_POINT('',(-9.11438593041588,0.,-119.994380265643));
#302=CARTESIAN_POINT('',(-9.19541471411477,0.,-119.982360105581));
#303=CARTESIAN_POINT('',(-9.29076709411468,0.,-119.958474193463));
#304=CARTESIAN_POINT('',(-9.38331891857867,0.,-119.925356630812));
#305=CARTESIAN_POINT('',(-9.47217876057259,0.,-119.883326383971));
#306=CARTESIAN_POINT('',(-9.55649076046396,0.,-119.832788281044));
#307=CARTESIAN_POINT('',(-9.63544285229436,0.,-119.77422907723));
#308=CARTESIAN_POINT('',(-9.70827460596448,0.,-119.708212799998));
#309=CARTESIAN_POINT('',(-9.77428452705066,0.,-119.635375285738));
#310=CARTESIAN_POINT('',(-9.83283684083248,0.,-119.556418083892));
#311=CARTESIAN_POINT('',(-9.88336758595561,0.,-119.472101674049));
#312=CARTESIAN_POINT('',(-9.92539007816686,0.,-119.38323816454));
#313=CARTESIAN_POINT('',(-9.9584995640325,0.,-119.290683450353));
#314=CARTESIAN_POINT('',(-9.98237715500557,0.,-119.195328986222));
#315=CARTESIAN_POINT('',(-9.99439024392327,0.,-119.114299153819));
#316=CARTESIAN_POINT('',(-9.99920035453114,0.,-119.049002903039));
#317=CARTESIAN_POINT('',(-10.0001132126296,0.,-119.007109447702));
#318=CARTESIAN_POINT('',(-9.99935924345984,0.,-111.657427296128));
#319=CARTESIAN_POINT('',(-9.99807933787695,0.,-96.9907897182826));
#320=CARTESIAN_POINT('',(-9.99680023223504,0.,-82.3333187889229));
#321=CARTESIAN_POINT('',(-9.99616027944359,0.,-75.));
#322=CARTESIAN_POINT('',(-6.66410685296239,0.,-75.));
#323=CARTESIAN_POINT('',(-3.3320534264812,0.,-75.));
#324=CARTESIAN_POINT('',(0.,0.,-75.));
#325=CARTESIAN_POINT('',(0.,0.,-50.));
#326=CARTESIAN_POINT('',(0.,0.,-120.));
#327=CARTESIAN_POINT('',(0.,0.,0.));
#328=CARTESIAN_POINT('',(0.,0.,0.));
#329=CARTESIAN_POINT('',(-8.5,0.,0.));
#330=CARTESIAN_POINT('',(0.,0.,-1.5));
#331=CARTESIAN_POINT('',(-10.,0.,-1.5));
#332=CARTESIAN_POINT('',(0.,0.,-1.5));
#333=CARTESIAN_POINT('',(8.5,0.,5.08080204713085E-17));
#334=CARTESIAN_POINT('',(0.,0.,-73.0708135467718));
#335=CARTESIAN_POINT('',(-9.5,0.,-73.0708135467718));
#336=CARTESIAN_POINT('',(0.,0.,-75.));
#337=CARTESIAN_POINT('',(-9.99616027944358,0.,-75.));
#338=CARTESIAN_POINT('',(0.,0.,-75.0003490658499));
#339=CARTESIAN_POINT('',(0.,0.,-55.));
#340=CARTESIAN_POINT('',(-9.5,0.,-55.));
#341=CARTESIAN_POINT('',(0.,0.,-50.));
#342=CARTESIAN_POINT('',(0.,0.,-52.8205505282296));
#343=CARTESIAN_POINT('',(-10.,0.,-52.8205505282296));
#344=CARTESIAN_POINT('',(0.,0.,-55.));
#345=CARTESIAN_POINT('',(0.,0.,-50.));
#346=CARTESIAN_POINT('',(0.,0.,-75.));
#347=CARTESIAN_POINT('',(0.,0.,-120.));
#348=CARTESIAN_POINT('',(1.,1.22464679914735E-16,-120.));
#349=CARTESIAN_POINT('',(0.,0.,-120.));
#350=CARTESIAN_POINT('',(-9.00000000000001,0.,-120.));
#351=CARTESIAN_POINT('',(2.66453525910038E-15,0.,-120.));
#352=CARTESIAN_POINT('',(0.,0.,-118.999912733538));
#353=CARTESIAN_POINT('',(-9.9999999961923,0.,-118.999912733538));
#354=CARTESIAN_POINT('',(0.,0.,-119.));
#355=CARTESIAN_POINT('',(0.,0.,-75.));
#356=CARTESIAN_POINT('',(-9.99616027944358,0.,-75.));
#357=CARTESIAN_POINT('',(0.,0.,-118.999912733538));
#358=CARTESIAN_POINT('',(0.,0.,-75.));
#359=CARTESIAN_POINT('',(0.,0.,-119.8));
#360=CARTESIAN_POINT('',(1.,1.22464679914735E-16,-119.8));
#361=CARTESIAN_POINT('',(0.,0.,-119.8));
#362=CARTESIAN_POINT('',(0.,0.,-119.8));
#363=MECHANICAL_DESIGN_GEOMETRIC_PRESENTATION_REPRESENTATION('',(#186,#187,
#188,#189,#190,#191,#192),#364);
#364=(
GEOMETRIC_REPRESENTATION_CONTEXT(3)
GLOBAL_UNCERTAINTY_ASSIGNED_CONTEXT((#365))
GLOBAL_UNIT_ASSIGNED_CONTEXT((#371,#367,#366))
REPRESENTATION_CONTEXT('S4651-200E2R100','TOP_LEVEL_ASSEMBLY_PART')
);
#365=UNCERTAINTY_MEASURE_WITH_UNIT(LENGTH_MEASURE(2.E-5),#371,
'DISTANCE_ACCURACY_VALUE','Maximum Tolerance applied to model');
#366=(
NAMED_UNIT(*)
SI_UNIT($,.STERADIAN.)
SOLID_ANGLE_UNIT()
);
#367=(
CONVERSION_BASED_UNIT('DEGREE',#369)
NAMED_UNIT(#368)
PLANE_ANGLE_UNIT()
);
#368=DIMENSIONAL_EXPONENTS(0.,0.,0.,0.,0.,0.,0.);
#369=PLANE_ANGLE_MEASURE_WITH_UNIT(PLANE_ANGLE_MEASURE(0.0174532925),#370);
#370=(
NAMED_UNIT(*)
PLANE_ANGLE_UNIT()
SI_UNIT($,.RADIAN.)
);
#371=(
LENGTH_UNIT()
NAMED_UNIT(*)
SI_UNIT(.MILLI.,.METRE.)
);
ENDSEC;
END-ISO-10303-21;
