ISO-10303-21;
HEADER;
/* Generated by software containing ST-Developer
 * from STEP Tools, Inc. (www.steptools.com) 
 */
/* OPTION: using custom schema-name function */

FILE_DESCRIPTION(
/* description */ (''),
/* implementation_level */ '2;1');

FILE_NAME(
/* name */ 'SAH-2341008236_Basic.stp',
/* time_stamp */ '2024-09-30T08:39:57+05:00',
/* author */ (''),
/* organization */ (''),
/* preprocessor_version */ 'ST-DEVELOPER v16.7',
/* originating_system */ 'SIEMENS PLM Software NX 12.0',
/* authorisation */ '');

FILE_SCHEMA (('AUTOMOTIVE_DESIGN { 1 0 10303 214 3 1 1 1 }'));
ENDSEC;

DATA;
#10=CONSTRUCTIVE_GEOMETRY_REPRESENTATION_RELATIONSHIP(
'supplemental geometry','',#34,#11);
#11=CONSTRUCTIVE_GEOMETRY_REPRESENTATION('supplemental geometry',(#251,
#252,#253),#418);
#12=GEOMETRICALLY_BOUNDED_WIREFRAME_SHAPE_REPRESENTATION(
'inpu1424589Dlurd-None',(#35),#418);
#13=PROPERTY_DEFINITION_REPRESENTATION(#17,#15);
#14=PROPERTY_DEFINITION_REPRESENTATION(#18,#16);
#15=REPRESENTATION('',(#19),#418);
#16=REPRESENTATION('',(#20),#418);
#17=PROPERTY_DEFINITION('pmi validation property','',#25);
#18=PROPERTY_DEFINITION('pmi validation property','',#25);
#19=VALUE_REPRESENTATION_ITEM('number of annotations',COUNT_MEASURE(0.));
#20=VALUE_REPRESENTATION_ITEM('number of views',COUNT_MEASURE(0.));
#21=SHAPE_REPRESENTATION_RELATIONSHIP('None',
'relationship between inpu1424589Dlurd-None and inpu1424589Dlurd-None',
#34,#23);
#22=SHAPE_REPRESENTATION_RELATIONSHIP('None',
'relationship between inpu1424589Dlurd-None and inpu1424589Dlurd-None',
#34,#12);
#23=ADVANCED_BREP_SHAPE_REPRESENTATION('inpu1424589Dlurd-None',(#41),#418);
#24=SHAPE_DEFINITION_REPRESENTATION(#25,#34);
#25=PRODUCT_DEFINITION_SHAPE('','',#26);
#26=PRODUCT_DEFINITION(' ','',#28,#27);
#27=PRODUCT_DEFINITION_CONTEXT('part definition',#33,'design');
#28=PRODUCT_DEFINITION_FORMATION_WITH_SPECIFIED_SOURCE(' ',' ',#30,
 .NOT_KNOWN.);
#29=PRODUCT_RELATED_PRODUCT_CATEGORY('part','',(#30));
#30=PRODUCT('inpu1424589Dlurd','inpu1424589Dlurd',' ',(#31));
#31=PRODUCT_CONTEXT(' ',#33,'mechanical');
#32=APPLICATION_PROTOCOL_DEFINITION('international standard',
'automotive_design',2010,#33);
#33=APPLICATION_CONTEXT(
'core data for automotive mechanical design processes');
#34=SHAPE_REPRESENTATION('inpu1424589Dlurd-None',(#250),#418);
#35=GEOMETRIC_CURVE_SET('None',(#362,#363,#364));
#36=SURFACE_STYLE_USAGE(.BOTH.,#37);
#37=SURFACE_SIDE_STYLE('',(#38));
#38=SURFACE_STYLE_FILL_AREA(#39);
#39=FILL_AREA_STYLE('',(#40));
#40=FILL_AREA_STYLE_COLOUR('',#249);
#41=MANIFOLD_SOLID_BREP('NOCUT',#42);
#42=CLOSED_SHELL('',(#84,#85,#86,#87,#88,#89,#90,#91,#92,#93,#94,#95,#96,
#97,#98,#99,#100));
#43=CONICAL_SURFACE('',#266,4.57735026918963,30.0000000000001);
#44=CONICAL_SURFACE('',#268,14.,45.0000000000001);
#45=CONICAL_SURFACE('',#271,30.25,45.0000000000001);
#46=CONICAL_SURFACE('',#279,13.5,4.50000000000004);
#47=CONICAL_SURFACE('',#281,10.5427123915281,45.0000000000002);
#48=CONICAL_SURFACE('',#285,28.85,45.0000000000001);
#49=CYLINDRICAL_SURFACE('',#261,5.);
#50=CYLINDRICAL_SURFACE('',#264,4.);
#51=CYLINDRICAL_SURFACE('',#277,13.5);
#52=CYLINDRICAL_SURFACE('',#284,30.);
#53=CYLINDRICAL_SURFACE('',#286,15.);
#54=FACE_BOUND('',#110,.T.);
#55=FACE_BOUND('',#111,.T.);
#56=FACE_BOUND('',#112,.T.);
#57=FACE_BOUND('',#113,.T.);
#58=FACE_BOUND('',#114,.T.);
#59=FACE_BOUND('',#115,.T.);
#60=FACE_BOUND('',#116,.T.);
#61=FACE_BOUND('',#117,.T.);
#62=FACE_BOUND('',#118,.T.);
#63=FACE_BOUND('',#119,.T.);
#64=FACE_BOUND('',#120,.T.);
#65=FACE_BOUND('',#121,.T.);
#66=FACE_BOUND('',#122,.T.);
#67=FACE_BOUND('',#123,.T.);
#68=FACE_BOUND('',#125,.T.);
#69=FACE_BOUND('',#126,.T.);
#70=FACE_BOUND('',#127,.T.);
#71=FACE_BOUND('',#128,.T.);
#72=FACE_BOUND('',#129,.T.);
#73=FACE_BOUND('',#130,.T.);
#74=FACE_BOUND('',#131,.T.);
#75=FACE_BOUND('',#132,.T.);
#76=FACE_BOUND('',#133,.T.);
#77=FACE_BOUND('',#134,.T.);
#78=FACE_BOUND('',#135,.T.);
#79=FACE_BOUND('',#136,.T.);
#80=FACE_BOUND('',#137,.T.);
#81=FACE_BOUND('',#138,.T.);
#82=FACE_BOUND('',#139,.T.);
#83=FACE_BOUND('',#140,.T.);
#84=ADVANCED_FACE('',(#107),#101,.F.);
#85=ADVANCED_FACE('',(#54,#55),#102,.T.);
#86=ADVANCED_FACE('',(#56,#57),#49,.F.);
#87=ADVANCED_FACE('',(#58,#59),#50,.F.);
#88=ADVANCED_FACE('',(#60,#61),#43,.F.);
#89=ADVANCED_FACE('',(#62,#63),#44,.T.);
#90=ADVANCED_FACE('',(#64,#65),#45,.T.);
#91=ADVANCED_FACE('',(#66,#67),#103,.F.);
#92=ADVANCED_FACE('',(#108),#104,.F.);
#93=ADVANCED_FACE('',(#68,#69),#105,.F.);
#94=ADVANCED_FACE('',(#70,#71),#51,.T.);
#95=ADVANCED_FACE('',(#72,#73),#46,.T.);
#96=ADVANCED_FACE('',(#74,#75),#47,.T.);
#97=ADVANCED_FACE('',(#76,#77),#106,.F.);
#98=ADVANCED_FACE('',(#78,#79),#52,.T.);
#99=ADVANCED_FACE('',(#80,#81),#48,.T.);
#100=ADVANCED_FACE('',(#82,#83),#53,.T.);
#101=PLANE('',#255);
#102=PLANE('',#258);
#103=PLANE('',#272);
#104=PLANE('',#273);
#105=PLANE('',#275);
#106=PLANE('',#282);
#107=FACE_OUTER_BOUND('',#109,.T.);
#108=FACE_OUTER_BOUND('',#124,.T.);
#109=EDGE_LOOP('',(#141));
#110=EDGE_LOOP('',(#142));
#111=EDGE_LOOP('',(#143));
#112=EDGE_LOOP('',(#144));
#113=EDGE_LOOP('',(#145));
#114=EDGE_LOOP('',(#146));
#115=EDGE_LOOP('',(#147));
#116=EDGE_LOOP('',(#148));
#117=EDGE_LOOP('',(#149));
#118=EDGE_LOOP('',(#150));
#119=EDGE_LOOP('',(#151));
#120=EDGE_LOOP('',(#152));
#121=EDGE_LOOP('',(#153));
#122=EDGE_LOOP('',(#154));
#123=EDGE_LOOP('',(#155));
#124=EDGE_LOOP('',(#156));
#125=EDGE_LOOP('',(#157));
#126=EDGE_LOOP('',(#158));
#127=EDGE_LOOP('',(#159));
#128=EDGE_LOOP('',(#160));
#129=EDGE_LOOP('',(#161));
#130=EDGE_LOOP('',(#162));
#131=EDGE_LOOP('',(#163));
#132=EDGE_LOOP('',(#164));
#133=EDGE_LOOP('',(#165));
#134=EDGE_LOOP('',(#166));
#135=EDGE_LOOP('',(#167));
#136=EDGE_LOOP('',(#168));
#137=EDGE_LOOP('',(#169));
#138=EDGE_LOOP('',(#170));
#139=EDGE_LOOP('',(#171));
#140=EDGE_LOOP('',(#172));
#141=ORIENTED_EDGE('',*,*,#189,.F.);
#142=ORIENTED_EDGE('',*,*,#190,.F.);
#143=ORIENTED_EDGE('',*,*,#191,.T.);
#144=ORIENTED_EDGE('',*,*,#192,.T.);
#145=ORIENTED_EDGE('',*,*,#193,.F.);
#146=ORIENTED_EDGE('',*,*,#194,.T.);
#147=ORIENTED_EDGE('',*,*,#195,.F.);
#148=ORIENTED_EDGE('',*,*,#196,.T.);
#149=ORIENTED_EDGE('',*,*,#194,.F.);
#150=ORIENTED_EDGE('',*,*,#197,.F.);
#151=ORIENTED_EDGE('',*,*,#189,.T.);
#152=ORIENTED_EDGE('',*,*,#198,.F.);
#153=ORIENTED_EDGE('',*,*,#199,.F.);
#154=ORIENTED_EDGE('',*,*,#192,.F.);
#155=ORIENTED_EDGE('',*,*,#195,.T.);
#156=ORIENTED_EDGE('',*,*,#193,.T.);
#157=ORIENTED_EDGE('',*,*,#200,.F.);
#158=ORIENTED_EDGE('',*,*,#199,.T.);
#159=ORIENTED_EDGE('',*,*,#200,.T.);
#160=ORIENTED_EDGE('',*,*,#201,.F.);
#161=ORIENTED_EDGE('',*,*,#201,.T.);
#162=ORIENTED_EDGE('',*,*,#202,.F.);
#163=ORIENTED_EDGE('',*,*,#202,.T.);
#164=ORIENTED_EDGE('',*,*,#203,.F.);
#165=ORIENTED_EDGE('',*,*,#196,.F.);
#166=ORIENTED_EDGE('',*,*,#203,.T.);
#167=ORIENTED_EDGE('',*,*,#204,.T.);
#168=ORIENTED_EDGE('',*,*,#198,.T.);
#169=ORIENTED_EDGE('',*,*,#191,.F.);
#170=ORIENTED_EDGE('',*,*,#204,.F.);
#171=ORIENTED_EDGE('',*,*,#197,.T.);
#172=ORIENTED_EDGE('',*,*,#190,.T.);
#173=VERTEX_POINT('',#369);
#174=VERTEX_POINT('',#372);
#175=VERTEX_POINT('',#374);
#176=VERTEX_POINT('',#377);
#177=VERTEX_POINT('',#379);
#178=VERTEX_POINT('',#382);
#179=VERTEX_POINT('',#384);
#180=VERTEX_POINT('',#387);
#181=VERTEX_POINT('',#390);
#182=VERTEX_POINT('',#393);
#183=VERTEX_POINT('',#395);
#184=VERTEX_POINT('',#400);
#185=VERTEX_POINT('',#403);
#186=VERTEX_POINT('',#406);
#187=VERTEX_POINT('',#409);
#188=VERTEX_POINT('',#413);
#189=EDGE_CURVE('',#173,#173,#205,.T.);
#190=EDGE_CURVE('',#174,#174,#206,.T.);
#191=EDGE_CURVE('',#175,#175,#207,.T.);
#192=EDGE_CURVE('',#176,#176,#208,.T.);
#193=EDGE_CURVE('',#177,#177,#209,.T.);
#194=EDGE_CURVE('',#178,#178,#210,.T.);
#195=EDGE_CURVE('',#179,#179,#211,.T.);
#196=EDGE_CURVE('',#180,#180,#212,.T.);
#197=EDGE_CURVE('',#181,#181,#213,.T.);
#198=EDGE_CURVE('',#182,#182,#214,.T.);
#199=EDGE_CURVE('',#183,#183,#215,.T.);
#200=EDGE_CURVE('',#184,#184,#216,.T.);
#201=EDGE_CURVE('',#185,#185,#217,.T.);
#202=EDGE_CURVE('',#186,#186,#218,.T.);
#203=EDGE_CURVE('',#187,#187,#219,.T.);
#204=EDGE_CURVE('',#188,#188,#220,.T.);
#205=CIRCLE('',#254,14.);
#206=CIRCLE('',#256,15.);
#207=CIRCLE('',#257,29.);
#208=CIRCLE('',#259,5.);
#209=CIRCLE('',#260,5.);
#210=CIRCLE('',#262,4.);
#211=CIRCLE('',#263,4.);
#212=CIRCLE('',#265,4.57735026918963);
#213=CIRCLE('',#267,15.);
#214=CIRCLE('',#269,30.);
#215=CIRCLE('',#270,29.);
#216=CIRCLE('',#274,13.5);
#217=CIRCLE('',#276,13.5);
#218=CIRCLE('',#278,10.5427123915281);
#219=CIRCLE('',#280,10.);
#220=CIRCLE('',#283,30.);
#221=CURVE_STYLE('',#224,POSITIVE_LENGTH_MEASURE(0.18),#248);
#222=CURVE_STYLE('',#225,POSITIVE_LENGTH_MEASURE(0.18),#248);
#223=CURVE_STYLE('',#226,POSITIVE_LENGTH_MEASURE(0.18),#248);
#224=DRAUGHTING_PRE_DEFINED_CURVE_FONT('continuous');
#225=DRAUGHTING_PRE_DEFINED_CURVE_FONT('continuous');
#226=DRAUGHTING_PRE_DEFINED_CURVE_FONT('continuous');
#227=PRESENTATION_LAYER_ASSIGNMENT('1','Layer 1',(#362,#363,#364,#251,#252,
#253,#41));
#228=STYLED_ITEM('',(#235),#362);
#229=STYLED_ITEM('',(#236),#363);
#230=STYLED_ITEM('',(#237),#364);
#231=STYLED_ITEM('',(#238),#251);
#232=STYLED_ITEM('',(#239),#252);
#233=STYLED_ITEM('',(#240),#253);
#234=STYLED_ITEM('',(#241),#41);
#235=PRESENTATION_STYLE_ASSIGNMENT((#242));
#236=PRESENTATION_STYLE_ASSIGNMENT((#243));
#237=PRESENTATION_STYLE_ASSIGNMENT((#244));
#238=PRESENTATION_STYLE_ASSIGNMENT((#221));
#239=PRESENTATION_STYLE_ASSIGNMENT((#222));
#240=PRESENTATION_STYLE_ASSIGNMENT((#223));
#241=PRESENTATION_STYLE_ASSIGNMENT((#36));
#242=POINT_STYLE('',#245,POSITIVE_LENGTH_MEASURE(3.),#248);
#243=POINT_STYLE('',#246,POSITIVE_LENGTH_MEASURE(3.),#248);
#244=POINT_STYLE('',#247,POSITIVE_LENGTH_MEASURE(3.),#248);
#245=PRE_DEFINED_POINT_MARKER_SYMBOL('plus');
#246=PRE_DEFINED_POINT_MARKER_SYMBOL('plus');
#247=PRE_DEFINED_POINT_MARKER_SYMBOL('plus');
#248=COLOUR_RGB('Strong Stone',0.576470588235294,0.54508278019379,0.392156862745098);
#249=COLOUR_RGB('Medium Gray',0.490196078431373,0.490196078431373,0.490196078431373);
#250=AXIS2_PLACEMENT_3D('',#361,#287,#288);
#251=AXIS2_PLACEMENT_3D('MCS',#365,#289,#290);
#252=AXIS2_PLACEMENT_3D('PCS',#366,#291,#292);
#253=AXIS2_PLACEMENT_3D('CSW',#367,#293,#294);
#254=AXIS2_PLACEMENT_3D('',#368,#295,#296);
#255=AXIS2_PLACEMENT_3D('',#370,#297,#298);
#256=AXIS2_PLACEMENT_3D('',#371,#299,#300);
#257=AXIS2_PLACEMENT_3D('',#373,#301,#302);
#258=AXIS2_PLACEMENT_3D('',#375,#303,#304);
#259=AXIS2_PLACEMENT_3D('',#376,#305,#306);
#260=AXIS2_PLACEMENT_3D('',#378,#307,#308);
#261=AXIS2_PLACEMENT_3D('',#380,#309,#310);
#262=AXIS2_PLACEMENT_3D('',#381,#311,#312);
#263=AXIS2_PLACEMENT_3D('',#383,#313,#314);
#264=AXIS2_PLACEMENT_3D('',#385,#315,#316);
#265=AXIS2_PLACEMENT_3D('',#386,#317,#318);
#266=AXIS2_PLACEMENT_3D('',#388,#319,#320);
#267=AXIS2_PLACEMENT_3D('',#389,#321,#322);
#268=AXIS2_PLACEMENT_3D('',#391,#323,#324);
#269=AXIS2_PLACEMENT_3D('',#392,#325,#326);
#270=AXIS2_PLACEMENT_3D('',#394,#327,#328);
#271=AXIS2_PLACEMENT_3D('',#396,#329,#330);
#272=AXIS2_PLACEMENT_3D('',#397,#331,#332);
#273=AXIS2_PLACEMENT_3D('',#398,#333,#334);
#274=AXIS2_PLACEMENT_3D('',#399,#335,#336);
#275=AXIS2_PLACEMENT_3D('',#401,#337,#338);
#276=AXIS2_PLACEMENT_3D('',#402,#339,#340);
#277=AXIS2_PLACEMENT_3D('',#404,#341,#342);
#278=AXIS2_PLACEMENT_3D('',#405,#343,#344);
#279=AXIS2_PLACEMENT_3D('',#407,#345,#346);
#280=AXIS2_PLACEMENT_3D('',#408,#347,#348);
#281=AXIS2_PLACEMENT_3D('',#410,#349,#350);
#282=AXIS2_PLACEMENT_3D('',#411,#351,#352);
#283=AXIS2_PLACEMENT_3D('',#412,#353,#354);
#284=AXIS2_PLACEMENT_3D('',#414,#355,#356);
#285=AXIS2_PLACEMENT_3D('',#415,#357,#358);
#286=AXIS2_PLACEMENT_3D('',#416,#359,#360);
#287=DIRECTION('',(0.,0.,1.));
#288=DIRECTION('',(1.,0.,0.));
#289=DIRECTION('',(0.,0.,1.));
#290=DIRECTION('',(1.,0.,0.));
#291=DIRECTION('',(0.,0.,1.));
#292=DIRECTION('',(1.,0.,0.));
#293=DIRECTION('',(0.,0.,1.));
#294=DIRECTION('',(1.,0.,0.));
#295=DIRECTION('',(0.,0.,-1.));
#296=DIRECTION('',(-1.,0.,0.));
#297=DIRECTION('',(0.,0.,-1.));
#298=DIRECTION('',(1.,0.,0.));
#299=DIRECTION('',(0.,0.,1.));
#300=DIRECTION('',(1.,0.,0.));
#301=DIRECTION('',(0.,0.,1.));
#302=DIRECTION('',(1.,0.,0.));
#303=DIRECTION('',(0.,0.,1.));
#304=DIRECTION('',(-1.,0.,0.));
#305=DIRECTION('',(0.,0.,-1.));
#306=DIRECTION('',(-1.,0.,0.));
#307=DIRECTION('',(0.,0.,-1.));
#308=DIRECTION('',(-1.,0.,0.));
#309=DIRECTION('',(0.,0.,-1.));
#310=DIRECTION('',(1.,0.,0.));
#311=DIRECTION('',(0.,0.,-1.));
#312=DIRECTION('',(-1.,0.,0.));
#313=DIRECTION('',(0.,0.,-1.));
#314=DIRECTION('',(-1.,0.,0.));
#315=DIRECTION('',(0.,0.,-1.));
#316=DIRECTION('',(1.,0.,0.));
#317=DIRECTION('',(0.,0.,-1.));
#318=DIRECTION('',(-1.,0.,0.));
#319=DIRECTION('',(0.,0.,-1.));
#320=DIRECTION('',(1.,0.,-9.53918483588772E-17));
#321=DIRECTION('',(0.,0.,-1.));
#322=DIRECTION('',(-1.,0.,0.));
#323=DIRECTION('',(0.,0.,-1.));
#324=DIRECTION('',(1.,0.,5.47447250801358E-17));
#325=DIRECTION('',(0.,0.,1.));
#326=DIRECTION('',(1.,0.,0.));
#327=DIRECTION('',(0.,0.,-1.));
#328=DIRECTION('',(-1.,0.,0.));
#329=DIRECTION('',(0.,0.,1.));
#330=DIRECTION('',(-1.,0.,-4.04109327089961E-17));
#331=DIRECTION('',(0.,0.,-1.));
#332=DIRECTION('',(1.,0.,0.));
#333=DIRECTION('',(0.,0.,1.));
#334=DIRECTION('',(-1.,0.,0.));
#335=DIRECTION('',(0.,0.,-1.));
#336=DIRECTION('',(-1.,0.,0.));
#337=DIRECTION('',(0.,0.,1.));
#338=DIRECTION('',(-1.,0.,0.));
#339=DIRECTION('',(0.,0.,-1.));
#340=DIRECTION('',(-1.,0.,0.));
#341=DIRECTION('',(0.,0.,-1.));
#342=DIRECTION('',(1.,0.,0.));
#343=DIRECTION('',(0.,0.,-1.));
#344=DIRECTION('',(-1.,0.,0.));
#345=DIRECTION('',(0.,0.,1.));
#346=DIRECTION('',(-1.,0.,-3.01031039137095E-16));
#347=DIRECTION('',(0.,0.,-1.));
#348=DIRECTION('',(-1.,0.,0.));
#349=DIRECTION('',(0.,0.,1.));
#350=DIRECTION('',(-1.,0.,-4.11990140673168E-17));
#351=DIRECTION('',(0.,0.,1.));
#352=DIRECTION('',(-1.,0.,0.));
#353=DIRECTION('',(0.,0.,-1.));
#354=DIRECTION('',(-1.,0.,0.));
#355=DIRECTION('',(0.,0.,-1.));
#356=DIRECTION('',(1.,0.,0.));
#357=DIRECTION('',(0.,0.,-1.));
#358=DIRECTION('',(1.,0.,-2.02329607928479E-17));
#359=DIRECTION('',(0.,0.,-1.));
#360=DIRECTION('',(1.,0.,0.));
#361=CARTESIAN_POINT('',(0.,0.,0.));
#362=CARTESIAN_POINT('',(-1.40574643749903E-13,0.,0.));
#363=CARTESIAN_POINT('',(0.,0.,0.));
#364=CARTESIAN_POINT('',(-1.40574643749903E-13,0.,-60.));
#365=CARTESIAN_POINT('',(-1.40574643749903E-13,0.,0.));
#366=CARTESIAN_POINT('',(0.,0.,0.));
#367=CARTESIAN_POINT('',(-1.40574643749903E-13,0.,-60.));
#368=CARTESIAN_POINT('',(-1.40574643749903E-13,0.,11.5));
#369=CARTESIAN_POINT('',(-14.0000000000001,0.,11.5));
#370=CARTESIAN_POINT('',(-1.40574643749903E-13,3.30829037686548,11.5));
#371=CARTESIAN_POINT('',(-1.40574643749903E-13,0.,0.));
#372=CARTESIAN_POINT('',(14.9999999999999,0.,0.));
#373=CARTESIAN_POINT('',(-1.40574643749903E-13,0.,0.));
#374=CARTESIAN_POINT('',(28.9999999999998,0.,0.));
#375=CARTESIAN_POINT('',(-1.40574643749903E-13,15.,0.));
#376=CARTESIAN_POINT('',(-1.40574643749903E-13,0.,-34.));
#377=CARTESIAN_POINT('',(-5.00000000000014,0.,-34.));
#378=CARTESIAN_POINT('',(-1.40574643749903E-13,0.,-24.));
#379=CARTESIAN_POINT('',(-5.00000000000014,0.,-24.));
#380=CARTESIAN_POINT('',(-1.40574643749903E-13,0.,-60.));
#381=CARTESIAN_POINT('',(-1.40574643749903E-13,0.,-59.));
#382=CARTESIAN_POINT('',(-4.00000000000014,0.,-59.));
#383=CARTESIAN_POINT('',(-1.40574643749903E-13,0.,-34.));
#384=CARTESIAN_POINT('',(-4.00000000000014,0.,-34.));
#385=CARTESIAN_POINT('',(-1.40574643749903E-13,0.,-60.));
#386=CARTESIAN_POINT('',(-1.40574643749903E-13,0.,-60.));
#387=CARTESIAN_POINT('',(-4.57735026918977,0.,-60.));
#388=CARTESIAN_POINT('',(-1.40574643749903E-13,0.,-60.));
#389=CARTESIAN_POINT('',(-1.40574643749903E-13,0.,10.5));
#390=CARTESIAN_POINT('',(-15.0000000000001,0.,10.5));
#391=CARTESIAN_POINT('',(-1.40574643749903E-13,0.,11.5));
#392=CARTESIAN_POINT('',(-1.40574643749903E-13,0.,-12.));
#393=CARTESIAN_POINT('',(29.9999999999999,0.,-12.));
#394=CARTESIAN_POINT('',(-1.40574643749903E-13,0.,-13.));
#395=CARTESIAN_POINT('',(-29.0000000000001,0.,-13.));
#396=CARTESIAN_POINT('',(-1.40574643749903E-13,0.,-11.75));
#397=CARTESIAN_POINT('',(-1.40574643749903E-13,4.,-34.));
#398=CARTESIAN_POINT('',(-1.40574643749903E-13,5.,-24.));
#399=CARTESIAN_POINT('',(-1.40574643749903E-13,0.,-13.));
#400=CARTESIAN_POINT('',(-13.5000000000001,0.,-13.));
#401=CARTESIAN_POINT('',(-1.40574643749903E-13,13.5,-13.));
#402=CARTESIAN_POINT('',(-1.40574643749903E-13,0.,-21.8813857914762));
#403=CARTESIAN_POINT('',(-13.5000000000001,0.,-21.8813857914762));
#404=CARTESIAN_POINT('',(-1.40574643749903E-13,0.,-60.));
#405=CARTESIAN_POINT('',(-1.40574643749903E-13,0.,-59.4572876084719));
#406=CARTESIAN_POINT('',(-10.5427123915283,0.,-59.4572876084719));
#407=CARTESIAN_POINT('',(-1.40574643749903E-13,0.,-21.8813857914762));
#408=CARTESIAN_POINT('',(-1.40574643749903E-13,0.,-60.));
#409=CARTESIAN_POINT('',(-10.0000000000001,0.,-60.));
#410=CARTESIAN_POINT('',(-1.40574643749903E-13,0.,-59.4572876084719));
#411=CARTESIAN_POINT('',(-1.40574643749903E-13,4.57735026918963,-60.));
#412=CARTESIAN_POINT('',(-1.40574643749903E-13,0.,-0.999999999999994));
#413=CARTESIAN_POINT('',(-30.0000000000001,0.,-0.999999999999994));
#414=CARTESIAN_POINT('',(-1.40574643749903E-13,0.,-60.));
#415=CARTESIAN_POINT('',(-1.40574643749903E-13,0.,0.150000000000004));
#416=CARTESIAN_POINT('',(-1.40574643749903E-13,0.,-60.));
#417=MECHANICAL_DESIGN_GEOMETRIC_PRESENTATION_REPRESENTATION('',(#228,#229,
#230,#231,#232,#233,#234),#418);
#418=(
GEOMETRIC_REPRESENTATION_CONTEXT(3)
GLOBAL_UNCERTAINTY_ASSIGNED_CONTEXT((#419))
GLOBAL_UNIT_ASSIGNED_CONTEXT((#425,#421,#420))
REPRESENTATION_CONTEXT('SAH-2341008236_Basic','TOP_LEVEL_ASSEMBLY_PART')
);
#419=UNCERTAINTY_MEASURE_WITH_UNIT(LENGTH_MEASURE(2.E-5),#425,
'DISTANCE_ACCURACY_VALUE','Maximum Tolerance applied to model');
#420=(
NAMED_UNIT(*)
SI_UNIT($,.STERADIAN.)
SOLID_ANGLE_UNIT()
);
#421=(
CONVERSION_BASED_UNIT('DEGREE',#423)
NAMED_UNIT(#422)
PLANE_ANGLE_UNIT()
);
#422=DIMENSIONAL_EXPONENTS(0.,0.,0.,0.,0.,0.,0.);
#423=PLANE_ANGLE_MEASURE_WITH_UNIT(PLANE_ANGLE_MEASURE(0.0174532925),#424);
#424=(
NAMED_UNIT(*)
PLANE_ANGLE_UNIT()
SI_UNIT($,.RADIAN.)
);
#425=(
LENGTH_UNIT()
NAMED_UNIT(*)
SI_UNIT(.MILLI.,.METRE.)
);
ENDSEC;
END-ISO-10303-21;
