ISO-10303-21;
HEADER;
/* Generated by software containing ST-Developer
 * from STEP Tools, Inc. (www.steptools.com) 
 */
/* OPTION: using custom schema-name function */

FILE_DESCRIPTION(
/* description */ (''),
/* implementation_level */ '2;1');

FILE_NAME(
/* name */ 'SAH-2341110242_Basic.stp',
/* time_stamp */ '2024-09-30T14:29:15+06:00',
/* author */ (''),
/* organization */ (''),
/* preprocessor_version */ 'ST-DEVELOPER v16.7',
/* originating_system */ 'SIEMENS PLM Software NX 12.0',
/* authorisation */ '');

FILE_SCHEMA (('AUTOMOTIVE_DESIGN { 1 0 10303 214 3 1 1 1 }'));
ENDSEC;

DATA;
#10=CONSTRUCTIVE_GEOMETRY_REPRESENTATION_RELATIONSHIP(
'supplemental geometry','',#34,#11);
#11=CONSTRUCTIVE_GEOMETRY_REPRESENTATION('supplemental geometry',(#295,
#296,#297),#498);
#12=GEOMETRICALLY_BOUNDED_WIREFRAME_SHAPE_REPRESENTATION(
'inpu1424589Dlv1m-None',(#35),#498);
#13=PROPERTY_DEFINITION_REPRESENTATION(#17,#15);
#14=PROPERTY_DEFINITION_REPRESENTATION(#18,#16);
#15=REPRESENTATION('',(#19),#498);
#16=REPRESENTATION('',(#20),#498);
#17=PROPERTY_DEFINITION('pmi validation property','',#25);
#18=PROPERTY_DEFINITION('pmi validation property','',#25);
#19=VALUE_REPRESENTATION_ITEM('number of annotations',COUNT_MEASURE(0.));
#20=VALUE_REPRESENTATION_ITEM('number of views',COUNT_MEASURE(0.));
#21=SHAPE_REPRESENTATION_RELATIONSHIP('None',
'relationship between inpu1424589Dlv1m-None and inpu1424589Dlv1m-None',
#34,#23);
#22=SHAPE_REPRESENTATION_RELATIONSHIP('None',
'relationship between inpu1424589Dlv1m-None and inpu1424589Dlv1m-None',
#34,#12);
#23=ADVANCED_BREP_SHAPE_REPRESENTATION('inpu1424589Dlv1m-None',(#41),#498);
#24=SHAPE_DEFINITION_REPRESENTATION(#25,#34);
#25=PRODUCT_DEFINITION_SHAPE('','',#26);
#26=PRODUCT_DEFINITION(' ','',#28,#27);
#27=PRODUCT_DEFINITION_CONTEXT('part definition',#33,'design');
#28=PRODUCT_DEFINITION_FORMATION_WITH_SPECIFIED_SOURCE(' ',' ',#30,
 .NOT_KNOWN.);
#29=PRODUCT_RELATED_PRODUCT_CATEGORY('part','',(#30));
#30=PRODUCT('inpu1424589Dlv1m','inpu1424589Dlv1m',' ',(#31));
#31=PRODUCT_CONTEXT(' ',#33,'mechanical');
#32=APPLICATION_PROTOCOL_DEFINITION('international standard',
'automotive_design',2010,#33);
#33=APPLICATION_CONTEXT(
'core data for automotive mechanical design processes');
#34=SHAPE_REPRESENTATION('inpu1424589Dlv1m-None',(#294),#498);
#35=GEOMETRIC_CURVE_SET('None',(#430,#431,#432));
#36=SURFACE_STYLE_USAGE(.BOTH.,#37);
#37=SURFACE_SIDE_STYLE('',(#38));
#38=SURFACE_STYLE_FILL_AREA(#39);
#39=FILL_AREA_STYLE('',(#40));
#40=FILL_AREA_STYLE_COLOUR('',#293);
#41=MANIFOLD_SOLID_BREP('NOCUT',#42);
#42=CLOSED_SHELL('',(#96,#97,#98,#99,#100,#101,#102,#103,#104,#105,#106,
#107,#108,#109,#110,#111,#112,#113,#114,#115,#116));
#43=TOROIDAL_SURFACE('',#307,19.9,0.400000000000001);
#44=CYLINDRICAL_SURFACE('',#303,20.);
#45=CYLINDRICAL_SURFACE('',#309,19.5);
#46=CYLINDRICAL_SURFACE('',#315,40.);
#47=CYLINDRICAL_SURFACE('',#320,15.);
#48=CYLINDRICAL_SURFACE('',#324,25.);
#49=CYLINDRICAL_SURFACE('',#331,5.);
#50=CYLINDRICAL_SURFACE('',#335,6.);
#51=CONICAL_SURFACE('',#301,19.,45.0000000000001);
#52=CONICAL_SURFACE('',#305,20.25,30.);
#53=CONICAL_SURFACE('',#313,38.85,45.0000000000001);
#54=CONICAL_SURFACE('',#318,15.,10.0000000000001);
#55=CONICAL_SURFACE('',#322,25.,60.0000000000002);
#56=CONICAL_SURFACE('',#326,40.25,45.);
#57=CONICAL_SURFACE('',#329,5.57735026918963,30.0000000000001);
#58=FACE_BOUND('',#126,.T.);
#59=FACE_BOUND('',#127,.T.);
#60=FACE_BOUND('',#128,.T.);
#61=FACE_BOUND('',#129,.T.);
#62=FACE_BOUND('',#130,.T.);
#63=FACE_BOUND('',#131,.T.);
#64=FACE_BOUND('',#132,.T.);
#65=FACE_BOUND('',#133,.T.);
#66=FACE_BOUND('',#134,.T.);
#67=FACE_BOUND('',#135,.T.);
#68=FACE_BOUND('',#136,.T.);
#69=FACE_BOUND('',#137,.T.);
#70=FACE_BOUND('',#138,.T.);
#71=FACE_BOUND('',#139,.T.);
#72=FACE_BOUND('',#140,.T.);
#73=FACE_BOUND('',#141,.T.);
#74=FACE_BOUND('',#142,.T.);
#75=FACE_BOUND('',#143,.T.);
#76=FACE_BOUND('',#144,.T.);
#77=FACE_BOUND('',#145,.T.);
#78=FACE_BOUND('',#146,.T.);
#79=FACE_BOUND('',#147,.T.);
#80=FACE_BOUND('',#148,.T.);
#81=FACE_BOUND('',#149,.T.);
#82=FACE_BOUND('',#150,.T.);
#83=FACE_BOUND('',#151,.T.);
#84=FACE_BOUND('',#152,.T.);
#85=FACE_BOUND('',#153,.T.);
#86=FACE_BOUND('',#154,.T.);
#87=FACE_BOUND('',#155,.T.);
#88=FACE_BOUND('',#156,.T.);
#89=FACE_BOUND('',#157,.T.);
#90=FACE_BOUND('',#158,.T.);
#91=FACE_BOUND('',#159,.T.);
#92=FACE_BOUND('',#161,.T.);
#93=FACE_BOUND('',#162,.T.);
#94=FACE_BOUND('',#163,.T.);
#95=FACE_BOUND('',#164,.T.);
#96=ADVANCED_FACE('',(#123),#117,.F.);
#97=ADVANCED_FACE('',(#58,#59),#51,.T.);
#98=ADVANCED_FACE('',(#60,#61),#44,.T.);
#99=ADVANCED_FACE('',(#62,#63),#52,.T.);
#100=ADVANCED_FACE('',(#64,#65),#43,.F.);
#101=ADVANCED_FACE('',(#66,#67),#45,.T.);
#102=ADVANCED_FACE('',(#68,#69),#118,.T.);
#103=ADVANCED_FACE('',(#70,#71),#53,.T.);
#104=ADVANCED_FACE('',(#72,#73),#46,.T.);
#105=ADVANCED_FACE('',(#74,#75),#54,.T.);
#106=ADVANCED_FACE('',(#76,#77),#47,.T.);
#107=ADVANCED_FACE('',(#78,#79),#55,.T.);
#108=ADVANCED_FACE('',(#80,#81),#48,.T.);
#109=ADVANCED_FACE('',(#82,#83),#56,.T.);
#110=ADVANCED_FACE('',(#84,#85),#57,.F.);
#111=ADVANCED_FACE('',(#86,#87),#49,.F.);
#112=ADVANCED_FACE('',(#88,#89),#119,.F.);
#113=ADVANCED_FACE('',(#90,#91),#50,.F.);
#114=ADVANCED_FACE('',(#124),#120,.F.);
#115=ADVANCED_FACE('',(#92,#93),#121,.F.);
#116=ADVANCED_FACE('',(#94,#95),#122,.F.);
#117=PLANE('',#299);
#118=PLANE('',#311);
#119=PLANE('',#333);
#120=PLANE('',#336);
#121=PLANE('',#337);
#122=PLANE('',#338);
#123=FACE_OUTER_BOUND('',#125,.T.);
#124=FACE_OUTER_BOUND('',#160,.T.);
#125=EDGE_LOOP('',(#165));
#126=EDGE_LOOP('',(#166));
#127=EDGE_LOOP('',(#167));
#128=EDGE_LOOP('',(#168));
#129=EDGE_LOOP('',(#169));
#130=EDGE_LOOP('',(#170));
#131=EDGE_LOOP('',(#171));
#132=EDGE_LOOP('',(#172));
#133=EDGE_LOOP('',(#173));
#134=EDGE_LOOP('',(#174));
#135=EDGE_LOOP('',(#175));
#136=EDGE_LOOP('',(#176));
#137=EDGE_LOOP('',(#177));
#138=EDGE_LOOP('',(#178));
#139=EDGE_LOOP('',(#179));
#140=EDGE_LOOP('',(#180));
#141=EDGE_LOOP('',(#181));
#142=EDGE_LOOP('',(#182));
#143=EDGE_LOOP('',(#183));
#144=EDGE_LOOP('',(#184));
#145=EDGE_LOOP('',(#185));
#146=EDGE_LOOP('',(#186));
#147=EDGE_LOOP('',(#187));
#148=EDGE_LOOP('',(#188));
#149=EDGE_LOOP('',(#189));
#150=EDGE_LOOP('',(#190));
#151=EDGE_LOOP('',(#191));
#152=EDGE_LOOP('',(#192));
#153=EDGE_LOOP('',(#193));
#154=EDGE_LOOP('',(#194));
#155=EDGE_LOOP('',(#195));
#156=EDGE_LOOP('',(#196));
#157=EDGE_LOOP('',(#197));
#158=EDGE_LOOP('',(#198));
#159=EDGE_LOOP('',(#199));
#160=EDGE_LOOP('',(#200));
#161=EDGE_LOOP('',(#201));
#162=EDGE_LOOP('',(#202));
#163=EDGE_LOOP('',(#203));
#164=EDGE_LOOP('',(#204));
#165=ORIENTED_EDGE('',*,*,#225,.F.);
#166=ORIENTED_EDGE('',*,*,#226,.F.);
#167=ORIENTED_EDGE('',*,*,#225,.T.);
#168=ORIENTED_EDGE('',*,*,#226,.T.);
#169=ORIENTED_EDGE('',*,*,#227,.T.);
#170=ORIENTED_EDGE('',*,*,#227,.F.);
#171=ORIENTED_EDGE('',*,*,#228,.F.);
#172=ORIENTED_EDGE('',*,*,#229,.F.);
#173=ORIENTED_EDGE('',*,*,#228,.T.);
#174=ORIENTED_EDGE('',*,*,#230,.F.);
#175=ORIENTED_EDGE('',*,*,#229,.T.);
#176=ORIENTED_EDGE('',*,*,#231,.T.);
#177=ORIENTED_EDGE('',*,*,#230,.T.);
#178=ORIENTED_EDGE('',*,*,#232,.F.);
#179=ORIENTED_EDGE('',*,*,#231,.F.);
#180=ORIENTED_EDGE('',*,*,#233,.T.);
#181=ORIENTED_EDGE('',*,*,#232,.T.);
#182=ORIENTED_EDGE('',*,*,#234,.T.);
#183=ORIENTED_EDGE('',*,*,#235,.F.);
#184=ORIENTED_EDGE('',*,*,#234,.F.);
#185=ORIENTED_EDGE('',*,*,#236,.T.);
#186=ORIENTED_EDGE('',*,*,#236,.F.);
#187=ORIENTED_EDGE('',*,*,#237,.T.);
#188=ORIENTED_EDGE('',*,*,#237,.F.);
#189=ORIENTED_EDGE('',*,*,#238,.T.);
#190=ORIENTED_EDGE('',*,*,#233,.F.);
#191=ORIENTED_EDGE('',*,*,#239,.F.);
#192=ORIENTED_EDGE('',*,*,#240,.T.);
#193=ORIENTED_EDGE('',*,*,#241,.F.);
#194=ORIENTED_EDGE('',*,*,#241,.T.);
#195=ORIENTED_EDGE('',*,*,#242,.F.);
#196=ORIENTED_EDGE('',*,*,#243,.F.);
#197=ORIENTED_EDGE('',*,*,#242,.T.);
#198=ORIENTED_EDGE('',*,*,#244,.F.);
#199=ORIENTED_EDGE('',*,*,#243,.T.);
#200=ORIENTED_EDGE('',*,*,#244,.T.);
#201=ORIENTED_EDGE('',*,*,#238,.F.);
#202=ORIENTED_EDGE('',*,*,#239,.T.);
#203=ORIENTED_EDGE('',*,*,#240,.F.);
#204=ORIENTED_EDGE('',*,*,#235,.T.);
#205=VERTEX_POINT('',#437);
#206=VERTEX_POINT('',#440);
#207=VERTEX_POINT('',#443);
#208=VERTEX_POINT('',#446);
#209=VERTEX_POINT('',#449);
#210=VERTEX_POINT('',#452);
#211=VERTEX_POINT('',#455);
#212=VERTEX_POINT('',#458);
#213=VERTEX_POINT('',#461);
#214=VERTEX_POINT('',#464);
#215=VERTEX_POINT('',#466);
#216=VERTEX_POINT('',#469);
#217=VERTEX_POINT('',#472);
#218=VERTEX_POINT('',#475);
#219=VERTEX_POINT('',#478);
#220=VERTEX_POINT('',#481);
#221=VERTEX_POINT('',#483);
#222=VERTEX_POINT('',#486);
#223=VERTEX_POINT('',#489);
#224=VERTEX_POINT('',#492);
#225=EDGE_CURVE('',#205,#205,#245,.T.);
#226=EDGE_CURVE('',#206,#206,#246,.T.);
#227=EDGE_CURVE('',#207,#207,#247,.T.);
#228=EDGE_CURVE('',#208,#208,#248,.T.);
#229=EDGE_CURVE('',#209,#209,#249,.T.);
#230=EDGE_CURVE('',#210,#210,#250,.T.);
#231=EDGE_CURVE('',#211,#211,#251,.T.);
#232=EDGE_CURVE('',#212,#212,#252,.T.);
#233=EDGE_CURVE('',#213,#213,#253,.T.);
#234=EDGE_CURVE('',#214,#214,#254,.T.);
#235=EDGE_CURVE('',#215,#215,#255,.T.);
#236=EDGE_CURVE('',#216,#216,#256,.T.);
#237=EDGE_CURVE('',#217,#217,#257,.T.);
#238=EDGE_CURVE('',#218,#218,#258,.T.);
#239=EDGE_CURVE('',#219,#219,#259,.T.);
#240=EDGE_CURVE('',#220,#220,#260,.T.);
#241=EDGE_CURVE('',#221,#221,#261,.T.);
#242=EDGE_CURVE('',#222,#222,#262,.T.);
#243=EDGE_CURVE('',#223,#223,#263,.T.);
#244=EDGE_CURVE('',#224,#224,#264,.T.);
#245=CIRCLE('',#298,19.);
#246=CIRCLE('',#300,20.);
#247=CIRCLE('',#302,20.);
#248=CIRCLE('',#304,19.5535898384862);
#249=CIRCLE('',#306,19.5);
#250=CIRCLE('',#308,19.5);
#251=CIRCLE('',#310,39.);
#252=CIRCLE('',#312,40.);
#253=CIRCLE('',#314,40.);
#254=CIRCLE('',#316,15.);
#255=CIRCLE('',#317,13.5);
#256=CIRCLE('',#319,15.);
#257=CIRCLE('',#321,25.);
#258=CIRCLE('',#323,25.);
#259=CIRCLE('',#325,39.);
#260=CIRCLE('',#327,5.57735026918963);
#261=CIRCLE('',#328,5.);
#262=CIRCLE('',#330,5.);
#263=CIRCLE('',#332,6.);
#264=CIRCLE('',#334,6.);
#265=CURVE_STYLE('',#268,POSITIVE_LENGTH_MEASURE(0.18),#292);
#266=CURVE_STYLE('',#269,POSITIVE_LENGTH_MEASURE(0.18),#292);
#267=CURVE_STYLE('',#270,POSITIVE_LENGTH_MEASURE(0.18),#292);
#268=DRAUGHTING_PRE_DEFINED_CURVE_FONT('continuous');
#269=DRAUGHTING_PRE_DEFINED_CURVE_FONT('continuous');
#270=DRAUGHTING_PRE_DEFINED_CURVE_FONT('continuous');
#271=PRESENTATION_LAYER_ASSIGNMENT('1','Layer 1',(#430,#431,#432,#295,#296,
#297,#41));
#272=STYLED_ITEM('',(#279),#430);
#273=STYLED_ITEM('',(#280),#431);
#274=STYLED_ITEM('',(#281),#432);
#275=STYLED_ITEM('',(#282),#295);
#276=STYLED_ITEM('',(#283),#296);
#277=STYLED_ITEM('',(#284),#297);
#278=STYLED_ITEM('',(#285),#41);
#279=PRESENTATION_STYLE_ASSIGNMENT((#286));
#280=PRESENTATION_STYLE_ASSIGNMENT((#287));
#281=PRESENTATION_STYLE_ASSIGNMENT((#288));
#282=PRESENTATION_STYLE_ASSIGNMENT((#265));
#283=PRESENTATION_STYLE_ASSIGNMENT((#266));
#284=PRESENTATION_STYLE_ASSIGNMENT((#267));
#285=PRESENTATION_STYLE_ASSIGNMENT((#36));
#286=POINT_STYLE('',#289,POSITIVE_LENGTH_MEASURE(3.),#292);
#287=POINT_STYLE('',#290,POSITIVE_LENGTH_MEASURE(3.),#292);
#288=POINT_STYLE('',#291,POSITIVE_LENGTH_MEASURE(3.),#292);
#289=PRE_DEFINED_POINT_MARKER_SYMBOL('plus');
#290=PRE_DEFINED_POINT_MARKER_SYMBOL('plus');
#291=PRE_DEFINED_POINT_MARKER_SYMBOL('plus');
#292=COLOUR_RGB('Strong Stone',0.576470588235294,0.54508278019379,0.392156862745098);
#293=COLOUR_RGB('Medium Gray',0.490196078431373,0.490196078431373,0.490196078431373);
#294=AXIS2_PLACEMENT_3D('',#429,#339,#340);
#295=AXIS2_PLACEMENT_3D('MCS',#433,#341,#342);
#296=AXIS2_PLACEMENT_3D('PCS',#434,#343,#344);
#297=AXIS2_PLACEMENT_3D('CSW',#435,#345,#346);
#298=AXIS2_PLACEMENT_3D('',#436,#347,#348);
#299=AXIS2_PLACEMENT_3D('',#438,#349,#350);
#300=AXIS2_PLACEMENT_3D('',#439,#351,#352);
#301=AXIS2_PLACEMENT_3D('',#441,#353,#354);
#302=AXIS2_PLACEMENT_3D('',#442,#355,#356);
#303=AXIS2_PLACEMENT_3D('',#444,#357,#358);
#304=AXIS2_PLACEMENT_3D('',#445,#359,#360);
#305=AXIS2_PLACEMENT_3D('',#447,#361,#362);
#306=AXIS2_PLACEMENT_3D('',#448,#363,#364);
#307=AXIS2_PLACEMENT_3D('',#450,#365,#366);
#308=AXIS2_PLACEMENT_3D('',#451,#367,#368);
#309=AXIS2_PLACEMENT_3D('',#453,#369,#370);
#310=AXIS2_PLACEMENT_3D('',#454,#371,#372);
#311=AXIS2_PLACEMENT_3D('',#456,#373,#374);
#312=AXIS2_PLACEMENT_3D('',#457,#375,#376);
#313=AXIS2_PLACEMENT_3D('',#459,#377,#378);
#314=AXIS2_PLACEMENT_3D('',#460,#379,#380);
#315=AXIS2_PLACEMENT_3D('',#462,#381,#382);
#316=AXIS2_PLACEMENT_3D('',#463,#383,#384);
#317=AXIS2_PLACEMENT_3D('',#465,#385,#386);
#318=AXIS2_PLACEMENT_3D('',#467,#387,#388);
#319=AXIS2_PLACEMENT_3D('',#468,#389,#390);
#320=AXIS2_PLACEMENT_3D('',#470,#391,#392);
#321=AXIS2_PLACEMENT_3D('',#471,#393,#394);
#322=AXIS2_PLACEMENT_3D('',#473,#395,#396);
#323=AXIS2_PLACEMENT_3D('',#474,#397,#398);
#324=AXIS2_PLACEMENT_3D('',#476,#399,#400);
#325=AXIS2_PLACEMENT_3D('',#477,#401,#402);
#326=AXIS2_PLACEMENT_3D('',#479,#403,#404);
#327=AXIS2_PLACEMENT_3D('',#480,#405,#406);
#328=AXIS2_PLACEMENT_3D('',#482,#407,#408);
#329=AXIS2_PLACEMENT_3D('',#484,#409,#410);
#330=AXIS2_PLACEMENT_3D('',#485,#411,#412);
#331=AXIS2_PLACEMENT_3D('',#487,#413,#414);
#332=AXIS2_PLACEMENT_3D('',#488,#415,#416);
#333=AXIS2_PLACEMENT_3D('',#490,#417,#418);
#334=AXIS2_PLACEMENT_3D('',#491,#419,#420);
#335=AXIS2_PLACEMENT_3D('',#493,#421,#422);
#336=AXIS2_PLACEMENT_3D('',#494,#423,#424);
#337=AXIS2_PLACEMENT_3D('',#495,#425,#426);
#338=AXIS2_PLACEMENT_3D('',#496,#427,#428);
#339=DIRECTION('',(0.,0.,1.));
#340=DIRECTION('',(1.,0.,0.));
#341=DIRECTION('',(0.,0.,1.));
#342=DIRECTION('',(1.,0.,0.));
#343=DIRECTION('',(0.,0.,1.));
#344=DIRECTION('',(1.,0.,0.));
#345=DIRECTION('',(0.,0.,1.));
#346=DIRECTION('',(1.,0.,0.));
#347=DIRECTION('',(0.,0.,-1.));
#348=DIRECTION('',(-1.,0.,0.));
#349=DIRECTION('',(0.,0.,-1.));
#350=DIRECTION('',(1.,0.,0.));
#351=DIRECTION('',(0.,0.,-1.));
#352=DIRECTION('',(-1.,0.,0.));
#353=DIRECTION('',(0.,0.,-1.));
#354=DIRECTION('',(1.,0.,-4.08570789238894E-17));
#355=DIRECTION('',(0.,0.,1.));
#356=DIRECTION('',(1.,0.,0.));
#357=DIRECTION('',(0.,0.,-1.));
#358=DIRECTION('',(1.,0.,0.));
#359=DIRECTION('',(0.,0.,-1.));
#360=DIRECTION('',(-1.,0.,0.));
#361=DIRECTION('',(0.,0.,1.));
#362=DIRECTION('',(-1.,0.,1.857802082537E-16));
#363=DIRECTION('',(0.,0.,-1.));
#364=DIRECTION('',(-1.,0.,0.));
#365=DIRECTION('',(0.,0.,-1.));
#366=DIRECTION('',(1.,0.,0.));
#367=DIRECTION('',(0.,0.,-1.));
#368=DIRECTION('',(1.,0.,0.));
#369=DIRECTION('',(0.,0.,-1.));
#370=DIRECTION('',(1.,0.,0.));
#371=DIRECTION('',(0.,0.,1.));
#372=DIRECTION('',(1.,0.,0.));
#373=DIRECTION('',(0.,0.,1.));
#374=DIRECTION('',(-1.,0.,0.));
#375=DIRECTION('',(0.,0.,-1.));
#376=DIRECTION('',(-1.,0.,0.));
#377=DIRECTION('',(0.,0.,-1.));
#378=DIRECTION('',(1.,0.,-1.33587984866096E-17));
#379=DIRECTION('',(0.,0.,1.));
#380=DIRECTION('',(1.,0.,0.));
#381=DIRECTION('',(0.,0.,-1.));
#382=DIRECTION('',(1.,0.,0.));
#383=DIRECTION('',(0.,0.,-1.));
#384=DIRECTION('',(-1.,0.,0.));
#385=DIRECTION('',(0.,0.,-1.));
#386=DIRECTION('',(-1.,0.,0.));
#387=DIRECTION('',(0.,0.,1.));
#388=DIRECTION('',(-1.,0.,1.45068800609577E-16));
#389=DIRECTION('',(0.,0.,-1.));
#390=DIRECTION('',(-1.,0.,0.));
#391=DIRECTION('',(0.,0.,-1.));
#392=DIRECTION('',(1.,0.,0.));
#393=DIRECTION('',(0.,0.,-1.));
#394=DIRECTION('',(-1.,0.,0.));
#395=DIRECTION('',(0.,0.,1.));
#396=DIRECTION('',(-1.,0.,3.1593367130951E-17));
#397=DIRECTION('',(0.,0.,-1.));
#398=DIRECTION('',(-1.,0.,0.));
#399=DIRECTION('',(0.,0.,-1.));
#400=DIRECTION('',(1.,0.,0.));
#401=DIRECTION('',(0.,0.,-1.));
#402=DIRECTION('',(-1.,0.,0.));
#403=DIRECTION('',(0.,0.,1.));
#404=DIRECTION('',(-1.,0.,-4.00224594313323E-17));
#405=DIRECTION('',(0.,0.,-1.));
#406=DIRECTION('',(-1.,0.,0.));
#407=DIRECTION('',(0.,0.,-1.));
#408=DIRECTION('',(-1.,0.,0.));
#409=DIRECTION('',(0.,0.,-1.));
#410=DIRECTION('',(1.,0.,1.66649359906619E-16));
#411=DIRECTION('',(0.,0.,-1.));
#412=DIRECTION('',(-1.,0.,0.));
#413=DIRECTION('',(0.,0.,-1.));
#414=DIRECTION('',(1.,0.,0.));
#415=DIRECTION('',(0.,0.,-1.));
#416=DIRECTION('',(-1.,0.,0.));
#417=DIRECTION('',(0.,0.,-1.));
#418=DIRECTION('',(1.,0.,0.));
#419=DIRECTION('',(0.,0.,-1.));
#420=DIRECTION('',(-1.,0.,0.));
#421=DIRECTION('',(0.,0.,-1.));
#422=DIRECTION('',(1.,0.,0.));
#423=DIRECTION('',(0.,0.,1.));
#424=DIRECTION('',(-1.,0.,0.));
#425=DIRECTION('',(0.,0.,1.));
#426=DIRECTION('',(-1.,0.,0.));
#427=DIRECTION('',(0.,0.,1.));
#428=DIRECTION('',(-1.,0.,0.));
#429=CARTESIAN_POINT('',(0.,0.,0.));
#430=CARTESIAN_POINT('',(-1.81575581510291E-13,0.,0.));
#431=CARTESIAN_POINT('',(0.,0.,0.));
#432=CARTESIAN_POINT('',(-1.81575581510291E-13,0.,-77.5));
#433=CARTESIAN_POINT('',(-1.81575581510291E-13,0.,0.));
#434=CARTESIAN_POINT('',(0.,0.,0.));
#435=CARTESIAN_POINT('',(-1.81575581510291E-13,0.,-77.5));
#436=CARTESIAN_POINT('',(-1.81575581510291E-13,0.,11.5));
#437=CARTESIAN_POINT('',(-19.0000000000002,0.,11.5));
#438=CARTESIAN_POINT('',(-1.81575581510291E-13,3.6350852961086,11.5));
#439=CARTESIAN_POINT('',(-1.81575581510291E-13,0.,10.5));
#440=CARTESIAN_POINT('',(-20.0000000000002,0.,10.5));
#441=CARTESIAN_POINT('',(-1.81575581510291E-13,0.,11.5));
#442=CARTESIAN_POINT('',(-1.81575581510291E-13,0.,2.));
#443=CARTESIAN_POINT('',(19.9999999999998,0.,2.));
#444=CARTESIAN_POINT('',(-1.81575581510291E-13,0.,-77.5));
#445=CARTESIAN_POINT('',(-1.81575581510291E-13,0.,1.22679491924312));
#446=CARTESIAN_POINT('',(-19.5535898384864,0.,1.22679491924312));
#447=CARTESIAN_POINT('',(-1.81575581510291E-13,0.,2.43301270189222));
#448=CARTESIAN_POINT('',(-1.81575581510291E-13,0.,1.02679491924312));
#449=CARTESIAN_POINT('',(-19.5000000000002,0.,1.02679491924312));
#450=CARTESIAN_POINT('',(-1.81575581510291E-13,0.,1.02679491924312));
#451=CARTESIAN_POINT('',(-1.81575581510291E-13,0.,0.));
#452=CARTESIAN_POINT('',(19.4999999999998,0.,0.));
#453=CARTESIAN_POINT('',(-1.81575581510291E-13,0.,-77.5));
#454=CARTESIAN_POINT('',(-1.81575581510291E-13,0.,0.));
#455=CARTESIAN_POINT('',(38.9999999999998,0.,0.));
#456=CARTESIAN_POINT('',(-1.81575581510291E-13,20.,0.));
#457=CARTESIAN_POINT('',(-1.81575581510291E-13,0.,-1.));
#458=CARTESIAN_POINT('',(-40.0000000000002,0.,-1.));
#459=CARTESIAN_POINT('',(-1.81575581510291E-13,0.,0.149999999999997));
#460=CARTESIAN_POINT('',(-1.81575581510291E-13,0.,-14.));
#461=CARTESIAN_POINT('',(39.9999999999998,0.,-14.));
#462=CARTESIAN_POINT('',(-1.81575581510291E-13,0.,-77.5));
#463=CARTESIAN_POINT('',(-1.81575581510291E-13,0.,-68.9930772705735));
#464=CARTESIAN_POINT('',(-15.0000000000002,0.,-68.9930772705735));
#465=CARTESIAN_POINT('',(-1.81575581510291E-13,0.,-77.5));
#466=CARTESIAN_POINT('',(-13.5000000000002,0.,-77.5));
#467=CARTESIAN_POINT('',(-1.81575581510291E-13,0.,-68.9930772705735));
#468=CARTESIAN_POINT('',(-1.81575581510291E-13,0.,-33.5));
#469=CARTESIAN_POINT('',(-15.0000000000002,0.,-33.5));
#470=CARTESIAN_POINT('',(-1.81575581510291E-13,0.,-77.5));
#471=CARTESIAN_POINT('',(-1.81575581510291E-13,0.,-27.7264973081038));
#472=CARTESIAN_POINT('',(-25.0000000000002,0.,-27.7264973081038));
#473=CARTESIAN_POINT('',(-1.81575581510291E-13,0.,-27.7264973081038));
#474=CARTESIAN_POINT('',(-1.81575581510291E-13,0.,-15.));
#475=CARTESIAN_POINT('',(-25.0000000000002,0.,-15.));
#476=CARTESIAN_POINT('',(-1.81575581510291E-13,0.,-77.5));
#477=CARTESIAN_POINT('',(-1.81575581510291E-13,0.,-15.));
#478=CARTESIAN_POINT('',(-39.0000000000002,0.,-15.));
#479=CARTESIAN_POINT('',(-1.81575581510291E-13,0.,-13.75));
#480=CARTESIAN_POINT('',(-1.81575581510291E-13,0.,-77.5));
#481=CARTESIAN_POINT('',(-5.57735026918981,0.,-77.5));
#482=CARTESIAN_POINT('',(-1.81575581510291E-13,0.,-76.5));
#483=CARTESIAN_POINT('',(-5.00000000000018,0.,-76.5));
#484=CARTESIAN_POINT('',(-1.81575581510291E-13,0.,-77.5));
#485=CARTESIAN_POINT('',(-1.81575581510291E-13,0.,-42.5));
#486=CARTESIAN_POINT('',(-5.00000000000018,0.,-42.5));
#487=CARTESIAN_POINT('',(-1.81575581510291E-13,0.,-77.5));
#488=CARTESIAN_POINT('',(-1.81575581510291E-13,0.,-42.5));
#489=CARTESIAN_POINT('',(-6.00000000000018,0.,-42.5));
#490=CARTESIAN_POINT('',(-1.81575581510291E-13,5.,-42.5));
#491=CARTESIAN_POINT('',(-1.81575581510291E-13,0.,-37.5));
#492=CARTESIAN_POINT('',(-6.00000000000018,0.,-37.5));
#493=CARTESIAN_POINT('',(-1.81575581510291E-13,0.,-77.5));
#494=CARTESIAN_POINT('',(-1.81575581510291E-13,6.,-37.5));
#495=CARTESIAN_POINT('',(-1.81575581510291E-13,25.,-15.));
#496=CARTESIAN_POINT('',(-1.81575581510291E-13,5.57735026918963,-77.5));
#497=MECHANICAL_DESIGN_GEOMETRIC_PRESENTATION_REPRESENTATION('',(#272,#273,
#274,#275,#276,#277,#278),#498);
#498=(
GEOMETRIC_REPRESENTATION_CONTEXT(3)
GLOBAL_UNCERTAINTY_ASSIGNED_CONTEXT((#499))
GLOBAL_UNIT_ASSIGNED_CONTEXT((#505,#501,#500))
REPRESENTATION_CONTEXT('SAH-2341110242_Basic','TOP_LEVEL_ASSEMBLY_PART')
);
#499=UNCERTAINTY_MEASURE_WITH_UNIT(LENGTH_MEASURE(2.E-5),#505,
'DISTANCE_ACCURACY_VALUE','Maximum Tolerance applied to model');
#500=(
NAMED_UNIT(*)
SI_UNIT($,.STERADIAN.)
SOLID_ANGLE_UNIT()
);
#501=(
CONVERSION_BASED_UNIT('DEGREE',#503)
NAMED_UNIT(#502)
PLANE_ANGLE_UNIT()
);
#502=DIMENSIONAL_EXPONENTS(0.,0.,0.,0.,0.,0.,0.);
#503=PLANE_ANGLE_MEASURE_WITH_UNIT(PLANE_ANGLE_MEASURE(0.0174532925),#504);
#504=(
NAMED_UNIT(*)
PLANE_ANGLE_UNIT()
SI_UNIT($,.RADIAN.)
);
#505=(
LENGTH_UNIT()
NAMED_UNIT(*)
SI_UNIT(.MILLI.,.METRE.)
);
ENDSEC;
END-ISO-10303-21;
